ISO-10303-21;
HEADER;
/* Generated by software containing ST-Developer
 * from STEP Tools, Inc. (www.steptools.com) 
 */
/* OPTION: using custom schema-name function */

FILE_DESCRIPTION(
/* description */ (''),
/* implementation_level */ '2;1');

FILE_NAME(
/* name */ 'CCH44-S10-C.stp',
/* time_stamp */ '2021-06-23T15:32:04-04:00',
/* author */ (''),
/* organization */ (''),
/* preprocessor_version */ 'ST-DEVELOPER v16',
/* originating_system */ 'SIEMENS PLM Software NX 11.0',
/* authorisation */ '');

FILE_SCHEMA (('AP203_CONFIGURATION_CONTROLLED_3D_DESIGN_OF_MECHANICAL_PARTS_AND_ASSEMBLIES_MIM_LF { 1 0 10303 403 2 1 2}'));
ENDSEC;

DATA;
#10=SHAPE_REPRESENTATION_RELATIONSHIP('None',
'relationship between 056476_A-CCH44-None and 056476_A-CCH44-None',#92,
#11);
#11=ADVANCED_BREP_SHAPE_REPRESENTATION('056476_A-CCH44-None',(#102),#601);
#12=CC_DESIGN_APPROVAL(#24,(#82));
#13=CC_DESIGN_APPROVAL(#25,(#84));
#14=CC_DESIGN_APPROVAL(#26,(#31));
#15=APPROVAL_PERSON_ORGANIZATION(#69,#24,#18);
#16=APPROVAL_PERSON_ORGANIZATION(#70,#25,#19);
#17=APPROVAL_PERSON_ORGANIZATION(#71,#26,#20);
#18=APPROVAL_ROLE('approver');
#19=APPROVAL_ROLE('approver');
#20=APPROVAL_ROLE('approver');
#21=APPROVAL_DATE_TIME(#39,#24);
#22=APPROVAL_DATE_TIME(#40,#25);
#23=APPROVAL_DATE_TIME(#41,#26);
#24=APPROVAL(#27,' ');
#25=APPROVAL(#28,' ');
#26=APPROVAL(#29,' ');
#27=APPROVAL_STATUS('not_yet_approved');
#28=APPROVAL_STATUS('not_yet_approved');
#29=APPROVAL_STATUS('not_yet_approved');
#30=CC_DESIGN_SECURITY_CLASSIFICATION(#31,(#84));
#31=SECURITY_CLASSIFICATION(' ',' ',#32);
#32=SECURITY_CLASSIFICATION_LEVEL('confidential');
#33=CC_DESIGN_DATE_AND_TIME_ASSIGNMENT(#37,#35,(#82));
#34=CC_DESIGN_DATE_AND_TIME_ASSIGNMENT(#38,#36,(#31));
#35=DATE_TIME_ROLE('creation_date');
#36=DATE_TIME_ROLE('classification_date');
#37=DATE_AND_TIME(#52,#42);
#38=DATE_AND_TIME(#53,#43);
#39=DATE_AND_TIME(#54,#44);
#40=DATE_AND_TIME(#55,#45);
#41=DATE_AND_TIME(#56,#46);
#42=LOCAL_TIME(0,0,0.,#47);
#43=LOCAL_TIME(0,0,0.,#48);
#44=LOCAL_TIME(0,0,0.,#49);
#45=LOCAL_TIME(0,0,0.,#50);
#46=LOCAL_TIME(0,0,0.,#51);
#47=COORDINATED_UNIVERSAL_TIME_OFFSET(0,0,.BEHIND.);
#48=COORDINATED_UNIVERSAL_TIME_OFFSET(0,0,.BEHIND.);
#49=COORDINATED_UNIVERSAL_TIME_OFFSET(0,0,.BEHIND.);
#50=COORDINATED_UNIVERSAL_TIME_OFFSET(0,0,.BEHIND.);
#51=COORDINATED_UNIVERSAL_TIME_OFFSET(0,0,.BEHIND.);
#52=CALENDAR_DATE(0,1,1);
#53=CALENDAR_DATE(0,1,1);
#54=CALENDAR_DATE(0,1,1);
#55=CALENDAR_DATE(0,1,1);
#56=CALENDAR_DATE(0,1,1);
#57=CC_DESIGN_PERSON_AND_ORGANIZATION_ASSIGNMENT(#65,#61,(#82,#84));
#58=CC_DESIGN_PERSON_AND_ORGANIZATION_ASSIGNMENT(#66,#62,(#86));
#59=CC_DESIGN_PERSON_AND_ORGANIZATION_ASSIGNMENT(#67,#63,(#84));
#60=CC_DESIGN_PERSON_AND_ORGANIZATION_ASSIGNMENT(#68,#64,(#31));
#61=PERSON_AND_ORGANIZATION_ROLE('creator');
#62=PERSON_AND_ORGANIZATION_ROLE('design_owner');
#63=PERSON_AND_ORGANIZATION_ROLE('design_supplier');
#64=PERSON_AND_ORGANIZATION_ROLE('classification_officer');
#65=PERSON_AND_ORGANIZATION(#79,#72);
#66=PERSON_AND_ORGANIZATION(#79,#73);
#67=PERSON_AND_ORGANIZATION(#79,#74);
#68=PERSON_AND_ORGANIZATION(#79,#75);
#69=PERSON_AND_ORGANIZATION(#79,#76);
#70=PERSON_AND_ORGANIZATION(#79,#77);
#71=PERSON_AND_ORGANIZATION(#79,#78);
#72=ORGANIZATION(' ',' ',' ');
#73=ORGANIZATION(' ',' ',' ');
#74=ORGANIZATION(' ',' ',' ');
#75=ORGANIZATION(' ',' ',' ');
#76=ORGANIZATION(' ',' ',' ');
#77=ORGANIZATION(' ',' ',' ');
#78=ORGANIZATION(' ',' ',' ');
#79=PERSON(' ',' ',' ',(' '),$,$);
#80=SHAPE_DEFINITION_REPRESENTATION(#81,#92);
#81=PRODUCT_DEFINITION_SHAPE('','',#82);
#82=PRODUCT_DEFINITION(' ','',#84,#83);
#83=DESIGN_CONTEXT('',#91,'design');
#84=PRODUCT_DEFINITION_FORMATION_WITH_SPECIFIED_SOURCE(' ',' ',#86,
 .NOT_KNOWN.);
#85=PRODUCT_RELATED_PRODUCT_CATEGORY('detail','',(#86));
#86=PRODUCT('056476_A-CCH44','056476_A-CCH44',' ',(#89));
#87=PRODUCT_CATEGORY('part',' ');
#88=PRODUCT_CATEGORY(' ','');
#89=MECHANICAL_CONTEXT(' ',#91,'mechanical');
#90=APPLICATION_PROTOCOL_DEFINITION('international standard',
'config_control_design',2010,#91);
#91=APPLICATION_CONTEXT(
'configuration controlled 3D designs of mechanical parts and assemblie
s');
#92=SHAPE_REPRESENTATION('056476_A-CCH44-None',(#392),#601);
#93=PRESENTATION_LAYER_ASSIGNMENT('1','Layer 1',(#102));
#94=STYLED_ITEM('',(#95),#102);
#95=PRESENTATION_STYLE_ASSIGNMENT((#96));
#96=SURFACE_STYLE_USAGE(.BOTH.,#97);
#97=SURFACE_SIDE_STYLE('',(#98));
#98=SURFACE_STYLE_FILL_AREA(#99);
#99=FILL_AREA_STYLE('',(#100));
#100=FILL_AREA_STYLE_COLOUR('',#101);
#101=DRAUGHTING_PRE_DEFINED_COLOUR('yellow');
#102=MANIFOLD_SOLID_BREP('',#103);
#103=CLOSED_SHELL('',(#122,#123,#124,#125,#126,#127,#128,#129,#130,#131,
#132,#133,#134,#135,#136,#137));
#104=CYLINDRICAL_SURFACE('',#402,0.2185);
#105=CYLINDRICAL_SURFACE('',#411,0.2685);
#106=CYLINDRICAL_SURFACE('',#419,0.143);
#107=CYLINDRICAL_SURFACE('',#420,0.25);
#108=CYLINDRICAL_SURFACE('',#421,0.1015);
#109=CYLINDRICAL_SURFACE('',#422,0.1015);
#110=CYLINDRICAL_SURFACE('',#423,0.25);
#111=CYLINDRICAL_SURFACE('',#424,0.1);
#112=FACE_OUTER_BOUND('',#210,.T.);
#113=FACE_OUTER_BOUND('',#211,.T.);
#114=FACE_OUTER_BOUND('',#216,.T.);
#115=FACE_OUTER_BOUND('',#217,.T.);
#116=FACE_OUTER_BOUND('',#218,.T.);
#117=FACE_OUTER_BOUND('',#219,.T.);
#118=FACE_OUTER_BOUND('',#220,.T.);
#119=FACE_OUTER_BOUND('',#221,.T.);
#120=FACE_OUTER_BOUND('',#226,.T.);
#121=FACE_OUTER_BOUND('',#227,.T.);
#122=ADVANCED_FACE('',(#194,#195),#138,.T.);
#123=ADVANCED_FACE('',(#196,#197),#139,.T.);
#124=ADVANCED_FACE('',(#112),#140,.T.);
#125=ADVANCED_FACE('',(#113),#104,.F.);
#126=ADVANCED_FACE('',(#198,#199),#141,.T.);
#127=ADVANCED_FACE('',(#200,#201),#142,.T.);
#128=ADVANCED_FACE('',(#114),#105,.T.);
#129=ADVANCED_FACE('',(#115),#143,.T.);
#130=ADVANCED_FACE('',(#116),#144,.T.);
#131=ADVANCED_FACE('',(#117),#145,.F.);
#132=ADVANCED_FACE('',(#118),#106,.T.);
#133=ADVANCED_FACE('',(#119),#107,.T.);
#134=ADVANCED_FACE('',(#202,#203),#108,.F.);
#135=ADVANCED_FACE('',(#204,#205),#109,.F.);
#136=ADVANCED_FACE('',(#120),#110,.T.);
#137=ADVANCED_FACE('',(#121),#111,.F.);
#138=PLANE('',#395);
#139=PLANE('',#398);
#140=PLANE('',#399);
#141=PLANE('',#405);
#142=PLANE('',#408);
#143=PLANE('',#412);
#144=PLANE('',#415);
#145=PLANE('',#418);
#146=LINE('',#518,#170);
#147=LINE('',#521,#171);
#148=LINE('',#523,#172);
#149=LINE('',#532,#173);
#150=LINE('',#534,#174);
#151=LINE('',#536,#175);
#152=LINE('',#538,#176);
#153=LINE('',#541,#177);
#154=LINE('',#543,#178);
#155=LINE('',#545,#179);
#156=LINE('',#551,#180);
#157=LINE('',#555,#181);
#158=LINE('',#559,#182);
#159=LINE('',#566,#183);
#160=LINE('',#568,#184);
#161=LINE('',#570,#185);
#162=LINE('',#576,#186);
#163=LINE('',#578,#187);
#164=LINE('',#580,#188);
#165=LINE('',#582,#189);
#166=LINE('',#584,#190);
#167=LINE('',#586,#191);
#168=LINE('',#590,#192);
#169=LINE('',#592,#193);
#170=VECTOR('',#429,1.);
#171=VECTOR('',#430,1.);
#172=VECTOR('',#431,1.);
#173=VECTOR('',#440,1.);
#174=VECTOR('',#441,1.);
#175=VECTOR('',#442,1.);
#176=VECTOR('',#445,1.);
#177=VECTOR('',#446,1.);
#178=VECTOR('',#447,1.);
#179=VECTOR('',#448,1.);
#180=VECTOR('',#455,1.);
#181=VECTOR('',#460,1.);
#182=VECTOR('',#463,1.);
#183=VECTOR('',#470,1.);
#184=VECTOR('',#471,1.);
#185=VECTOR('',#472,1.);
#186=VECTOR('',#479,1.);
#187=VECTOR('',#482,1.);
#188=VECTOR('',#483,1.);
#189=VECTOR('',#484,1.);
#190=VECTOR('',#487,1.);
#191=VECTOR('',#490,1.);
#192=VECTOR('',#497,1.);
#193=VECTOR('',#500,1.);
#194=FACE_BOUND('',#206,.T.);
#195=FACE_BOUND('',#207,.T.);
#196=FACE_BOUND('',#208,.T.);
#197=FACE_BOUND('',#209,.T.);
#198=FACE_BOUND('',#212,.T.);
#199=FACE_BOUND('',#213,.T.);
#200=FACE_BOUND('',#214,.T.);
#201=FACE_BOUND('',#215,.T.);
#202=FACE_BOUND('',#222,.T.);
#203=FACE_BOUND('',#223,.T.);
#204=FACE_BOUND('',#224,.T.);
#205=FACE_BOUND('',#225,.T.);
#206=EDGE_LOOP('',(#228));
#207=EDGE_LOOP('',(#229,#230,#231,#232));
#208=EDGE_LOOP('',(#233));
#209=EDGE_LOOP('',(#234,#235,#236,#237));
#210=EDGE_LOOP('',(#238,#239,#240,#241));
#211=EDGE_LOOP('',(#242,#243,#244,#245));
#212=EDGE_LOOP('',(#246));
#213=EDGE_LOOP('',(#247,#248,#249,#250));
#214=EDGE_LOOP('',(#251));
#215=EDGE_LOOP('',(#252,#253,#254,#255));
#216=EDGE_LOOP('',(#256,#257,#258,#259));
#217=EDGE_LOOP('',(#260,#261,#262,#263));
#218=EDGE_LOOP('',(#264,#265,#266,#267,#268,#269,#270,#271,#272,#273,#274,
#275));
#219=EDGE_LOOP('',(#276,#277,#278,#279,#280,#281,#282,#283,#284,#285,#286,
#287));
#220=EDGE_LOOP('',(#288,#289,#290,#291));
#221=EDGE_LOOP('',(#292,#293,#294,#295));
#222=EDGE_LOOP('',(#296));
#223=EDGE_LOOP('',(#297));
#224=EDGE_LOOP('',(#298));
#225=EDGE_LOOP('',(#299));
#226=EDGE_LOOP('',(#300,#301,#302,#303));
#227=EDGE_LOOP('',(#304,#305,#306,#307));
#228=ORIENTED_EDGE('',*,*,#336,.T.);
#229=ORIENTED_EDGE('',*,*,#337,.F.);
#230=ORIENTED_EDGE('',*,*,#338,.T.);
#231=ORIENTED_EDGE('',*,*,#339,.T.);
#232=ORIENTED_EDGE('',*,*,#340,.T.);
#233=ORIENTED_EDGE('',*,*,#341,.T.);
#234=ORIENTED_EDGE('',*,*,#342,.T.);
#235=ORIENTED_EDGE('',*,*,#343,.T.);
#236=ORIENTED_EDGE('',*,*,#344,.T.);
#237=ORIENTED_EDGE('',*,*,#345,.F.);
#238=ORIENTED_EDGE('',*,*,#346,.F.);
#239=ORIENTED_EDGE('',*,*,#347,.T.);
#240=ORIENTED_EDGE('',*,*,#348,.T.);
#241=ORIENTED_EDGE('',*,*,#349,.T.);
#242=ORIENTED_EDGE('',*,*,#350,.F.);
#243=ORIENTED_EDGE('',*,*,#349,.F.);
#244=ORIENTED_EDGE('',*,*,#351,.T.);
#245=ORIENTED_EDGE('',*,*,#352,.T.);
#246=ORIENTED_EDGE('',*,*,#353,.T.);
#247=ORIENTED_EDGE('',*,*,#354,.T.);
#248=ORIENTED_EDGE('',*,*,#355,.T.);
#249=ORIENTED_EDGE('',*,*,#356,.F.);
#250=ORIENTED_EDGE('',*,*,#352,.F.);
#251=ORIENTED_EDGE('',*,*,#357,.T.);
#252=ORIENTED_EDGE('',*,*,#358,.T.);
#253=ORIENTED_EDGE('',*,*,#359,.T.);
#254=ORIENTED_EDGE('',*,*,#360,.T.);
#255=ORIENTED_EDGE('',*,*,#361,.F.);
#256=ORIENTED_EDGE('',*,*,#362,.F.);
#257=ORIENTED_EDGE('',*,*,#360,.F.);
#258=ORIENTED_EDGE('',*,*,#363,.T.);
#259=ORIENTED_EDGE('',*,*,#364,.T.);
#260=ORIENTED_EDGE('',*,*,#365,.T.);
#261=ORIENTED_EDGE('',*,*,#366,.T.);
#262=ORIENTED_EDGE('',*,*,#367,.F.);
#263=ORIENTED_EDGE('',*,*,#364,.F.);
#264=ORIENTED_EDGE('',*,*,#343,.F.);
#265=ORIENTED_EDGE('',*,*,#368,.T.);
#266=ORIENTED_EDGE('',*,*,#339,.F.);
#267=ORIENTED_EDGE('',*,*,#369,.T.);
#268=ORIENTED_EDGE('',*,*,#365,.F.);
#269=ORIENTED_EDGE('',*,*,#363,.F.);
#270=ORIENTED_EDGE('',*,*,#359,.F.);
#271=ORIENTED_EDGE('',*,*,#370,.T.);
#272=ORIENTED_EDGE('',*,*,#354,.F.);
#273=ORIENTED_EDGE('',*,*,#351,.F.);
#274=ORIENTED_EDGE('',*,*,#348,.F.);
#275=ORIENTED_EDGE('',*,*,#371,.T.);
#276=ORIENTED_EDGE('',*,*,#367,.T.);
#277=ORIENTED_EDGE('',*,*,#372,.T.);
#278=ORIENTED_EDGE('',*,*,#337,.T.);
#279=ORIENTED_EDGE('',*,*,#373,.T.);
#280=ORIENTED_EDGE('',*,*,#345,.T.);
#281=ORIENTED_EDGE('',*,*,#374,.T.);
#282=ORIENTED_EDGE('',*,*,#346,.T.);
#283=ORIENTED_EDGE('',*,*,#350,.T.);
#284=ORIENTED_EDGE('',*,*,#356,.T.);
#285=ORIENTED_EDGE('',*,*,#375,.T.);
#286=ORIENTED_EDGE('',*,*,#361,.T.);
#287=ORIENTED_EDGE('',*,*,#362,.T.);
#288=ORIENTED_EDGE('',*,*,#371,.F.);
#289=ORIENTED_EDGE('',*,*,#347,.F.);
#290=ORIENTED_EDGE('',*,*,#374,.F.);
#291=ORIENTED_EDGE('',*,*,#344,.F.);
#292=ORIENTED_EDGE('',*,*,#375,.F.);
#293=ORIENTED_EDGE('',*,*,#355,.F.);
#294=ORIENTED_EDGE('',*,*,#370,.F.);
#295=ORIENTED_EDGE('',*,*,#358,.F.);
#296=ORIENTED_EDGE('',*,*,#353,.F.);
#297=ORIENTED_EDGE('',*,*,#357,.F.);
#298=ORIENTED_EDGE('',*,*,#341,.F.);
#299=ORIENTED_EDGE('',*,*,#336,.F.);
#300=ORIENTED_EDGE('',*,*,#373,.F.);
#301=ORIENTED_EDGE('',*,*,#340,.F.);
#302=ORIENTED_EDGE('',*,*,#368,.F.);
#303=ORIENTED_EDGE('',*,*,#342,.F.);
#304=ORIENTED_EDGE('',*,*,#369,.F.);
#305=ORIENTED_EDGE('',*,*,#338,.F.);
#306=ORIENTED_EDGE('',*,*,#372,.F.);
#307=ORIENTED_EDGE('',*,*,#366,.F.);
#308=VERTEX_POINT('',#517);
#309=VERTEX_POINT('',#519);
#310=VERTEX_POINT('',#520);
#311=VERTEX_POINT('',#522);
#312=VERTEX_POINT('',#524);
#313=VERTEX_POINT('',#528);
#314=VERTEX_POINT('',#530);
#315=VERTEX_POINT('',#531);
#316=VERTEX_POINT('',#533);
#317=VERTEX_POINT('',#535);
#318=VERTEX_POINT('',#539);
#319=VERTEX_POINT('',#540);
#320=VERTEX_POINT('',#542);
#321=VERTEX_POINT('',#544);
#322=VERTEX_POINT('',#548);
#323=VERTEX_POINT('',#550);
#324=VERTEX_POINT('',#554);
#325=VERTEX_POINT('',#556);
#326=VERTEX_POINT('',#558);
#327=VERTEX_POINT('',#562);
#328=VERTEX_POINT('',#564);
#329=VERTEX_POINT('',#565);
#330=VERTEX_POINT('',#567);
#331=VERTEX_POINT('',#569);
#332=VERTEX_POINT('',#573);
#333=VERTEX_POINT('',#575);
#334=VERTEX_POINT('',#579);
#335=VERTEX_POINT('',#581);
#336=EDGE_CURVE('',#308,#308,#376,.T.);
#337=EDGE_CURVE('',#309,#310,#146,.T.);
#338=EDGE_CURVE('',#309,#311,#147,.T.);
#339=EDGE_CURVE('',#311,#312,#148,.T.);
#340=EDGE_CURVE('',#312,#310,#377,.T.);
#341=EDGE_CURVE('',#313,#313,#378,.T.);
#342=EDGE_CURVE('',#314,#315,#379,.T.);
#343=EDGE_CURVE('',#315,#316,#149,.T.);
#344=EDGE_CURVE('',#316,#317,#150,.T.);
#345=EDGE_CURVE('',#314,#317,#151,.T.);
#346=EDGE_CURVE('',#318,#319,#152,.T.);
#347=EDGE_CURVE('',#318,#320,#153,.T.);
#348=EDGE_CURVE('',#320,#321,#154,.T.);
#349=EDGE_CURVE('',#321,#319,#155,.T.);
#350=EDGE_CURVE('',#319,#322,#380,.T.);
#351=EDGE_CURVE('',#321,#323,#381,.T.);
#352=EDGE_CURVE('',#323,#322,#156,.T.);
#353=EDGE_CURVE('',#324,#324,#382,.T.);
#354=EDGE_CURVE('',#323,#325,#157,.T.);
#355=EDGE_CURVE('',#325,#326,#383,.T.);
#356=EDGE_CURVE('',#322,#326,#158,.T.);
#357=EDGE_CURVE('',#327,#327,#384,.T.);
#358=EDGE_CURVE('',#328,#329,#385,.T.);
#359=EDGE_CURVE('',#329,#330,#159,.T.);
#360=EDGE_CURVE('',#330,#331,#160,.T.);
#361=EDGE_CURVE('',#328,#331,#161,.T.);
#362=EDGE_CURVE('',#331,#332,#386,.T.);
#363=EDGE_CURVE('',#330,#333,#387,.T.);
#364=EDGE_CURVE('',#333,#332,#162,.T.);
#365=EDGE_CURVE('',#333,#334,#163,.T.);
#366=EDGE_CURVE('',#334,#335,#164,.T.);
#367=EDGE_CURVE('',#332,#335,#165,.T.);
#368=EDGE_CURVE('',#315,#312,#166,.T.);
#369=EDGE_CURVE('',#311,#334,#388,.T.);
#370=EDGE_CURVE('',#329,#325,#167,.T.);
#371=EDGE_CURVE('',#320,#316,#389,.T.);
#372=EDGE_CURVE('',#335,#309,#390,.T.);
#373=EDGE_CURVE('',#310,#314,#168,.T.);
#374=EDGE_CURVE('',#317,#318,#391,.T.);
#375=EDGE_CURVE('',#326,#328,#169,.T.);
#376=CIRCLE('',#393,0.1015);
#377=CIRCLE('',#394,0.25);
#378=CIRCLE('',#396,0.1015);
#379=CIRCLE('',#397,0.25);
#380=CIRCLE('',#400,0.2185);
#381=CIRCLE('',#401,0.2185);
#382=CIRCLE('',#403,0.1015);
#383=CIRCLE('',#404,0.25);
#384=CIRCLE('',#406,0.1015);
#385=CIRCLE('',#407,0.25);
#386=CIRCLE('',#409,0.2685);
#387=CIRCLE('',#410,0.2685);
#388=CIRCLE('',#413,0.1);
#389=CIRCLE('',#414,0.143);
#390=CIRCLE('',#416,0.1);
#391=CIRCLE('',#417,0.143);
#392=AXIS2_PLACEMENT_3D('',#515,#425,#426);
#393=AXIS2_PLACEMENT_3D('',#516,#427,#428);
#394=AXIS2_PLACEMENT_3D('',#525,#432,#433);
#395=AXIS2_PLACEMENT_3D('',#526,#434,#435);
#396=AXIS2_PLACEMENT_3D('',#527,#436,#437);
#397=AXIS2_PLACEMENT_3D('',#529,#438,#439);
#398=AXIS2_PLACEMENT_3D('',#537,#443,#444);
#399=AXIS2_PLACEMENT_3D('',#546,#449,#450);
#400=AXIS2_PLACEMENT_3D('',#547,#451,#452);
#401=AXIS2_PLACEMENT_3D('',#549,#453,#454);
#402=AXIS2_PLACEMENT_3D('',#552,#456,#457);
#403=AXIS2_PLACEMENT_3D('',#553,#458,#459);
#404=AXIS2_PLACEMENT_3D('',#557,#461,#462);
#405=AXIS2_PLACEMENT_3D('',#560,#464,#465);
#406=AXIS2_PLACEMENT_3D('',#561,#466,#467);
#407=AXIS2_PLACEMENT_3D('',#563,#468,#469);
#408=AXIS2_PLACEMENT_3D('',#571,#473,#474);
#409=AXIS2_PLACEMENT_3D('',#572,#475,#476);
#410=AXIS2_PLACEMENT_3D('',#574,#477,#478);
#411=AXIS2_PLACEMENT_3D('',#577,#480,#481);
#412=AXIS2_PLACEMENT_3D('',#583,#485,#486);
#413=AXIS2_PLACEMENT_3D('',#585,#488,#489);
#414=AXIS2_PLACEMENT_3D('',#587,#491,#492);
#415=AXIS2_PLACEMENT_3D('',#588,#493,#494);
#416=AXIS2_PLACEMENT_3D('',#589,#495,#496);
#417=AXIS2_PLACEMENT_3D('',#591,#498,#499);
#418=AXIS2_PLACEMENT_3D('',#593,#501,#502);
#419=AXIS2_PLACEMENT_3D('',#594,#503,#504);
#420=AXIS2_PLACEMENT_3D('',#595,#505,#506);
#421=AXIS2_PLACEMENT_3D('',#596,#507,#508);
#422=AXIS2_PLACEMENT_3D('',#597,#509,#510);
#423=AXIS2_PLACEMENT_3D('',#598,#511,#512);
#424=AXIS2_PLACEMENT_3D('',#599,#513,#514);
#425=DIRECTION('',(0.,0.,1.));
#426=DIRECTION('',(1.,0.,0.));
#427=DIRECTION('',(0.,0.,-1.));
#428=DIRECTION('',(1.,0.,0.));
#429=DIRECTION('',(1.,0.,0.));
#430=DIRECTION('',(0.,-1.,0.));
#431=DIRECTION('',(1.,0.,0.));
#432=DIRECTION('',(0.,0.,1.));
#433=DIRECTION('',(1.,0.,0.));
#434=DIRECTION('',(0.,0.,1.));
#435=DIRECTION('',(1.,0.,0.));
#436=DIRECTION('',(4.32985206096407E-17,0.,1.));
#437=DIRECTION('',(-1.,0.,8.41086204945894E-17));
#438=DIRECTION('',(-4.32985206096407E-17,0.,-1.));
#439=DIRECTION('',(-1.,0.,3.41480999208033E-17));
#440=DIRECTION('',(-1.,0.,4.32985206096407E-17));
#441=DIRECTION('',(0.,1.,0.));
#442=DIRECTION('',(-1.,0.,4.32985206096407E-17));
#443=DIRECTION('',(-4.32985206096407E-17,0.,-1.));
#444=DIRECTION('',(-1.,0.,4.33680868994202E-17));
#445=DIRECTION('',(-1.57002758256567E-16,0.,1.));
#446=DIRECTION('',(0.,-1.,0.));
#447=DIRECTION('',(-1.57002758256567E-16,0.,1.));
#448=DIRECTION('',(0.,1.,0.));
#449=DIRECTION('',(-1.,0.,-1.57002758256567E-16));
#450=DIRECTION('',(-1.56992474575901E-16,0.,1.));
#451=DIRECTION('',(0.,-1.,0.));
#452=DIRECTION('',(1.,0.,0.));
#453=DIRECTION('',(0.,-1.,0.));
#454=DIRECTION('',(1.,0.,0.));
#455=DIRECTION('',(0.,1.,0.));
#456=DIRECTION('',(0.,1.,0.));
#457=DIRECTION('',(0.,0.,1.));
#458=DIRECTION('',(0.,0.,-1.));
#459=DIRECTION('',(1.,0.,0.));
#460=DIRECTION('',(1.,0.,0.));
#461=DIRECTION('',(0.,0.,1.));
#462=DIRECTION('',(1.,0.,0.));
#463=DIRECTION('',(1.,0.,0.));
#464=DIRECTION('',(0.,0.,1.));
#465=DIRECTION('',(1.,0.,0.));
#466=DIRECTION('',(2.10790740251872E-17,0.,1.));
#467=DIRECTION('',(-1.,0.,0.));
#468=DIRECTION('',(-2.10790740251872E-17,0.,-1.));
#469=DIRECTION('',(-1.,0.,0.));
#470=DIRECTION('',(-1.,0.,2.10790740251872E-17));
#471=DIRECTION('',(0.,1.,0.));
#472=DIRECTION('',(-1.,0.,2.10790740251872E-17));
#473=DIRECTION('',(-2.10790740251872E-17,0.,-1.));
#474=DIRECTION('',(-1.,0.,2.12503625807159E-17));
#475=DIRECTION('',(0.,1.,0.));
#476=DIRECTION('',(1.,0.,0.));
#477=DIRECTION('',(0.,1.,0.));
#478=DIRECTION('',(1.,0.,0.));
#479=DIRECTION('',(0.,1.,0.));
#480=DIRECTION('',(0.,1.,0.));
#481=DIRECTION('',(0.,0.,1.));
#482=DIRECTION('',(0.,0.,-1.));
#483=DIRECTION('',(0.,1.,0.));
#484=DIRECTION('',(0.,0.,-1.));
#485=DIRECTION('',(1.,0.,0.));
#486=DIRECTION('',(0.,0.,-1.));
#487=DIRECTION('',(0.,0.,1.));
#488=DIRECTION('',(0.,1.,0.));
#489=DIRECTION('',(0.,0.,-1.));
#490=DIRECTION('',(0.,0.,1.));
#491=DIRECTION('',(0.,-1.,0.));
#492=DIRECTION('',(0.,0.,-1.));
#493=DIRECTION('',(0.,-1.,0.));
#494=DIRECTION('',(0.,0.,-1.));
#495=DIRECTION('',(0.,-1.,0.));
#496=DIRECTION('',(0.,0.,-1.));
#497=DIRECTION('',(0.,0.,-1.));
#498=DIRECTION('',(0.,1.,0.));
#499=DIRECTION('',(0.,0.,-1.));
#500=DIRECTION('',(0.,0.,-1.));
#501=DIRECTION('',(0.,-1.,0.));
#502=DIRECTION('',(0.,0.,-1.));
#503=DIRECTION('',(0.,1.,0.));
#504=DIRECTION('',(0.,0.,1.));
#505=DIRECTION('',(0.,0.,1.));
#506=DIRECTION('',(1.,0.,0.));
#507=DIRECTION('',(0.,0.,-1.));
#508=DIRECTION('',(-1.,0.,0.));
#509=DIRECTION('',(0.,0.,-1.));
#510=DIRECTION('',(-1.,0.,0.));
#511=DIRECTION('',(0.,0.,1.));
#512=DIRECTION('',(1.,0.,0.));
#513=DIRECTION('',(0.,-1.,0.));
#514=DIRECTION('',(0.,0.,-1.));
#515=CARTESIAN_POINT('',(0.,0.,0.));
#516=CARTESIAN_POINT('',(0.56,0.,-0.0115));
#517=CARTESIAN_POINT('',(0.6615,0.,-0.0115));
#518=CARTESIAN_POINT('',(0.2685,0.25,-0.0115));
#519=CARTESIAN_POINT('',(0.3685,0.25,-0.0115));
#520=CARTESIAN_POINT('',(0.56,0.25,-0.0115));
#521=CARTESIAN_POINT('',(0.3685,-0.25,-0.0115));
#522=CARTESIAN_POINT('',(0.3685,-0.25,-0.0115));
#523=CARTESIAN_POINT('',(0.2685,-0.25,-0.0115));
#524=CARTESIAN_POINT('',(0.56,-0.25,-0.0115));
#525=CARTESIAN_POINT('',(0.56,0.,-0.0115));
#526=CARTESIAN_POINT('',(0.2685,-0.25,-0.0115));
#527=CARTESIAN_POINT('',(0.56,0.,-0.0615));
#528=CARTESIAN_POINT('',(0.4585,0.,-0.0615));
#529=CARTESIAN_POINT('',(0.56,0.,-0.0615));
#530=CARTESIAN_POINT('',(0.56,0.25,-0.0615));
#531=CARTESIAN_POINT('',(0.56,-0.25,-0.0615));
#532=CARTESIAN_POINT('',(0.81,-0.25,-0.0615));
#533=CARTESIAN_POINT('',(0.3615,-0.25,-0.0615));
#534=CARTESIAN_POINT('',(0.3615,-0.25,-0.0615));
#535=CARTESIAN_POINT('',(0.3615,0.25,-0.0615));
#536=CARTESIAN_POINT('',(0.81,0.25,-0.0615));
#537=CARTESIAN_POINT('',(0.81,-0.25,-0.0615));
#538=CARTESIAN_POINT('',(0.2185,0.25,-0.0615));
#539=CARTESIAN_POINT('',(0.2185,0.25,0.0815));
#540=CARTESIAN_POINT('',(0.2185,0.25,0.156));
#541=CARTESIAN_POINT('',(0.2185,-0.25,0.0815));
#542=CARTESIAN_POINT('',(0.2185,-0.25,0.0815));
#543=CARTESIAN_POINT('',(0.2185,-0.25,-0.0615));
#544=CARTESIAN_POINT('',(0.2185,-0.25,0.156));
#545=CARTESIAN_POINT('',(0.2185,-0.25,0.156));
#546=CARTESIAN_POINT('',(0.2185,-0.25,-0.0615));
#547=CARTESIAN_POINT('',(0.,0.25,0.156));
#548=CARTESIAN_POINT('',(-2.61655812446758E-13,0.25,-0.0625));
#549=CARTESIAN_POINT('',(0.,-0.25,0.156));
#550=CARTESIAN_POINT('',(-2.61655812446758E-13,-0.25,-0.0625));
#551=CARTESIAN_POINT('',(-2.61655812446758E-13,-0.25,-0.0625));
#552=CARTESIAN_POINT('',(0.,-0.25,0.156));
#553=CARTESIAN_POINT('',(0.56,0.,-0.0625));
#554=CARTESIAN_POINT('',(0.6615,0.,-0.0625));
#555=CARTESIAN_POINT('',(-2.61469665363556E-13,-0.25,-0.0625));
#556=CARTESIAN_POINT('',(0.56,-0.25,-0.0625));
#557=CARTESIAN_POINT('',(0.56,0.,-0.0625));
#558=CARTESIAN_POINT('',(0.56,0.25,-0.0625));
#559=CARTESIAN_POINT('',(-2.61469665363556E-13,0.25,-0.0625));
#560=CARTESIAN_POINT('',(-2.61469665363556E-13,-0.25,-0.0625));
#561=CARTESIAN_POINT('',(0.56,0.,-0.1125));
#562=CARTESIAN_POINT('',(0.4585,0.,-0.1125));
#563=CARTESIAN_POINT('',(0.56,0.,-0.1125));
#564=CARTESIAN_POINT('',(0.56,0.25,-0.1125));
#565=CARTESIAN_POINT('',(0.56,-0.25,-0.1125));
#566=CARTESIAN_POINT('',(0.81,-0.25,-0.1125));
#567=CARTESIAN_POINT('',(0.,-0.25,-0.1125));
#568=CARTESIAN_POINT('',(0.,-0.25,-0.1125));
#569=CARTESIAN_POINT('',(0.,0.25,-0.1125));
#570=CARTESIAN_POINT('',(0.81,0.25,-0.1125));
#571=CARTESIAN_POINT('',(0.81,-0.25,-0.1125));
#572=CARTESIAN_POINT('',(0.,0.25,0.156));
#573=CARTESIAN_POINT('',(0.2685,0.25,0.156));
#574=CARTESIAN_POINT('',(0.,-0.25,0.156));
#575=CARTESIAN_POINT('',(0.2685,-0.25,0.156));
#576=CARTESIAN_POINT('',(0.2685,-0.25,0.156));
#577=CARTESIAN_POINT('',(0.,-0.25,0.156));
#578=CARTESIAN_POINT('',(0.2685,-0.25,0.156));
#579=CARTESIAN_POINT('',(0.2685,-0.25,0.0885));
#580=CARTESIAN_POINT('',(0.2685,0.25,0.0885));
#581=CARTESIAN_POINT('',(0.2685,0.25,0.0885));
#582=CARTESIAN_POINT('',(0.2685,0.25,0.156));
#583=CARTESIAN_POINT('',(0.2685,-0.25,0.156));
#584=CARTESIAN_POINT('',(0.56,-0.25,0.156));
#585=CARTESIAN_POINT('',(0.3685,-0.25,0.0885));
#586=CARTESIAN_POINT('',(0.56,-0.25,0.156));
#587=CARTESIAN_POINT('',(0.3615,-0.25,0.0815));
#588=CARTESIAN_POINT('',(0.,-0.25,0.156));
#589=CARTESIAN_POINT('',(0.3685,0.25,0.0885));
#590=CARTESIAN_POINT('',(0.56,0.25,-0.0615));
#591=CARTESIAN_POINT('',(0.3615,0.25,0.0815));
#592=CARTESIAN_POINT('',(0.56,0.25,-0.1125));
#593=CARTESIAN_POINT('',(0.,0.25,0.156));
#594=CARTESIAN_POINT('',(0.3615,-0.25,0.0815));
#595=CARTESIAN_POINT('',(0.56,0.,0.156));
#596=CARTESIAN_POINT('',(0.56,0.,0.0185000000000001));
#597=CARTESIAN_POINT('',(0.56,0.,0.0185000000000001));
#598=CARTESIAN_POINT('',(0.56,0.,0.156));
#599=CARTESIAN_POINT('',(0.3685,-0.25,0.0885));
#600=MECHANICAL_DESIGN_GEOMETRIC_PRESENTATION_REPRESENTATION('',(#94),#601);
#601=(
GEOMETRIC_REPRESENTATION_CONTEXT(3)
GLOBAL_UNCERTAINTY_ASSIGNED_CONTEXT((#602))
GLOBAL_UNIT_ASSIGNED_CONTEXT((#607,#604,#603))
REPRESENTATION_CONTEXT('CCH44-S10-C','TOP_LEVEL_ASSEMBLY_PART')
);
#602=UNCERTAINTY_MEASURE_WITH_UNIT(LENGTH_MEASURE(7.8740157480315E-7),#607,
'DISTANCE_ACCURACY_VALUE','Maximum Tolerance applied to model');
#603=(
NAMED_UNIT(*)
SI_UNIT($,.STERADIAN.)
SOLID_ANGLE_UNIT()
);
#604=(
CONVERSION_BASED_UNIT('DEGREE',#605)
NAMED_UNIT(#609)
PLANE_ANGLE_UNIT()
);
#605=PLANE_ANGLE_MEASURE_WITH_UNIT(PLANE_ANGLE_MEASURE(0.0174532925),#606);
#606=(
NAMED_UNIT(*)
PLANE_ANGLE_UNIT()
SI_UNIT($,.RADIAN.)
);
#607=(
CONVERSION_BASED_UNIT('INCH',#610)
LENGTH_UNIT()
NAMED_UNIT(#608)
);
#608=DIMENSIONAL_EXPONENTS(1.,0.,0.,0.,0.,0.,0.);
#609=DIMENSIONAL_EXPONENTS(0.,0.,0.,0.,0.,0.,0.);
#610=LENGTH_MEASURE_WITH_UNIT(LENGTH_MEASURE(25.4),#611);
#611=(
LENGTH_UNIT()
NAMED_UNIT(*)
SI_UNIT(.MILLI.,.METRE.)
);
ENDSEC;
END-ISO-10303-21;
