ISO-10303-21;
HEADER;
/* Generated by software containing ST-Developer
 * from STEP Tools, Inc. (www.steptools.com) 
 */
/* OPTION: using custom schema-name function */

FILE_DESCRIPTION(
/* description */ (''),
/* implementation_level */ '2;1');

FILE_NAME(
/* name */ 'C6_3D_WEB.stp',
/* time_stamp */ '2014-12-03T13:57:32-06:00',
/* author */ (''),
/* organization */ (''),
/* preprocessor_version */ 'ST-DEVELOPER v11',
/* originating_system */ 'SIEMENS PLM Software NX 7.5',
/* authorisation */ '');

FILE_SCHEMA (('CONFIG_CONTROL_DESIGN'));
ENDSEC;

DATA;
#10=SHAPE_REPRESENTATION_RELATIONSHIP('None',
'relationship between bdkF4DA0e2r-None and bdkF4DA0e2r-None',#94,#11);
#11=ADVANCED_BREP_SHAPE_REPRESENTATION('bdkF4DA0e2r-None',(#95,#358),#517);
#12=CC_DESIGN_APPROVAL(#24,(#82));
#13=CC_DESIGN_APPROVAL(#25,(#84));
#14=CC_DESIGN_APPROVAL(#26,(#31));
#15=APPROVAL_PERSON_ORGANIZATION(#69,#24,#18);
#16=APPROVAL_PERSON_ORGANIZATION(#70,#25,#19);
#17=APPROVAL_PERSON_ORGANIZATION(#71,#26,#20);
#18=APPROVAL_ROLE('approver');
#19=APPROVAL_ROLE('approver');
#20=APPROVAL_ROLE('approver');
#21=APPROVAL_DATE_TIME(#39,#24);
#22=APPROVAL_DATE_TIME(#40,#25);
#23=APPROVAL_DATE_TIME(#41,#26);
#24=APPROVAL(#27,' ');
#25=APPROVAL(#28,' ');
#26=APPROVAL(#29,' ');
#27=APPROVAL_STATUS('not_yet_approved');
#28=APPROVAL_STATUS('not_yet_approved');
#29=APPROVAL_STATUS('not_yet_approved');
#30=CC_DESIGN_SECURITY_CLASSIFICATION(#31,(#84));
#31=SECURITY_CLASSIFICATION(' ',' ',#32);
#32=SECURITY_CLASSIFICATION_LEVEL('confidential');
#33=CC_DESIGN_DATE_AND_TIME_ASSIGNMENT(#37,#35,(#82));
#34=CC_DESIGN_DATE_AND_TIME_ASSIGNMENT(#38,#36,(#31));
#35=DATE_TIME_ROLE('creation_date');
#36=DATE_TIME_ROLE('classification_date');
#37=DATE_AND_TIME(#52,#42);
#38=DATE_AND_TIME(#53,#43);
#39=DATE_AND_TIME(#54,#44);
#40=DATE_AND_TIME(#55,#45);
#41=DATE_AND_TIME(#56,#46);
#42=LOCAL_TIME(0,0,0.,#47);
#43=LOCAL_TIME(0,0,0.,#48);
#44=LOCAL_TIME(0,0,0.,#49);
#45=LOCAL_TIME(0,0,0.,#50);
#46=LOCAL_TIME(0,0,0.,#51);
#47=COORDINATED_UNIVERSAL_TIME_OFFSET(0,0,.BEHIND.);
#48=COORDINATED_UNIVERSAL_TIME_OFFSET(0,0,.BEHIND.);
#49=COORDINATED_UNIVERSAL_TIME_OFFSET(0,0,.BEHIND.);
#50=COORDINATED_UNIVERSAL_TIME_OFFSET(0,0,.BEHIND.);
#51=COORDINATED_UNIVERSAL_TIME_OFFSET(0,0,.BEHIND.);
#52=CALENDAR_DATE(0,1,1);
#53=CALENDAR_DATE(0,1,1);
#54=CALENDAR_DATE(0,1,1);
#55=CALENDAR_DATE(0,1,1);
#56=CALENDAR_DATE(0,1,1);
#57=CC_DESIGN_PERSON_AND_ORGANIZATION_ASSIGNMENT(#65,#61,(#82,#84));
#58=CC_DESIGN_PERSON_AND_ORGANIZATION_ASSIGNMENT(#66,#62,(#86));
#59=CC_DESIGN_PERSON_AND_ORGANIZATION_ASSIGNMENT(#67,#63,(#84));
#60=CC_DESIGN_PERSON_AND_ORGANIZATION_ASSIGNMENT(#68,#64,(#31));
#61=PERSON_AND_ORGANIZATION_ROLE('creator');
#62=PERSON_AND_ORGANIZATION_ROLE('design_owner');
#63=PERSON_AND_ORGANIZATION_ROLE('design_supplier');
#64=PERSON_AND_ORGANIZATION_ROLE('classification_officer');
#65=PERSON_AND_ORGANIZATION(#79,#72);
#66=PERSON_AND_ORGANIZATION(#79,#73);
#67=PERSON_AND_ORGANIZATION(#79,#74);
#68=PERSON_AND_ORGANIZATION(#79,#75);
#69=PERSON_AND_ORGANIZATION(#79,#76);
#70=PERSON_AND_ORGANIZATION(#79,#77);
#71=PERSON_AND_ORGANIZATION(#79,#78);
#72=ORGANIZATION(' ',' ',' ');
#73=ORGANIZATION(' ',' ',' ');
#74=ORGANIZATION(' ',' ',' ');
#75=ORGANIZATION(' ',' ',' ');
#76=ORGANIZATION(' ',' ',' ');
#77=ORGANIZATION(' ',' ',' ');
#78=ORGANIZATION(' ',' ',' ');
#79=PERSON(' ',' ',' ',(' '),$,$);
#80=SHAPE_DEFINITION_REPRESENTATION(#81,#94);
#81=PRODUCT_DEFINITION_SHAPE('','',#82);
#82=PRODUCT_DEFINITION(' ','',#84,#83);
#83=DESIGN_CONTEXT('',#93,'design');
#84=PRODUCT_DEFINITION_FORMATION_WITH_SPECIFIED_SOURCE(' ',' ',#86,.NOT_KNOWN.);
#85=PRODUCT_RELATED_PRODUCT_CATEGORY('detail','',(#86));
#86=PRODUCT('bdkF4DA0e2r','bdkF4DA0e2r',' ',(#91));
#87=PRODUCT_CATEGORY_RELATIONSHIP(' ',' ',#89,#90);
#88=PRODUCT_CATEGORY_RELATIONSHIP('','',#90,#85);
#89=PRODUCT_CATEGORY('part',' ');
#90=PRODUCT_CATEGORY(' ','');
#91=MECHANICAL_CONTEXT(' ',#93,'mechanical');
#92=APPLICATION_PROTOCOL_DEFINITION('international standard',
'config_control_design',1994,#93);
#93=APPLICATION_CONTEXT(
'configuration controlled 3D designs of mechanical parts and assemblies');
#94=SHAPE_REPRESENTATION('bdkF4DA0e2r-None',(#357),#517);
#95=MANIFOLD_SOLID_BREP('',#96);
#96=CLOSED_SHELL('',(#97,#98,#99,#100,#101,#102,#103,#104,#105,#106,#107,
#108,#109,#110));
#97=ADVANCED_FACE('',(#125),#111,.T.);
#98=ADVANCED_FACE('',(#126),#112,.T.);
#99=ADVANCED_FACE('',(#127),#113,.T.);
#100=ADVANCED_FACE('',(#128),#114,.T.);
#101=ADVANCED_FACE('',(#129),#115,.T.);
#102=ADVANCED_FACE('',(#130),#116,.T.);
#103=ADVANCED_FACE('',(#131),#117,.T.);
#104=ADVANCED_FACE('',(#132),#118,.T.);
#105=ADVANCED_FACE('',(#133),#119,.T.);
#106=ADVANCED_FACE('',(#134),#120,.T.);
#107=ADVANCED_FACE('',(#135),#121,.T.);
#108=ADVANCED_FACE('',(#136),#122,.T.);
#109=ADVANCED_FACE('',(#137),#123,.F.);
#110=ADVANCED_FACE('',(#138),#124,.T.);
#111=PLANE('',#359);
#112=PLANE('',#360);
#113=PLANE('',#361);
#114=PLANE('',#362);
#115=PLANE('',#363);
#116=PLANE('',#364);
#117=PLANE('',#365);
#118=PLANE('',#366);
#119=PLANE('',#367);
#120=PLANE('',#368);
#121=PLANE('',#369);
#122=PLANE('',#370);
#123=PLANE('',#371);
#124=PLANE('',#372);
#125=FACE_OUTER_BOUND('',#139,.T.);
#126=FACE_OUTER_BOUND('',#140,.T.);
#127=FACE_OUTER_BOUND('',#141,.T.);
#128=FACE_OUTER_BOUND('',#142,.T.);
#129=FACE_OUTER_BOUND('',#143,.T.);
#130=FACE_OUTER_BOUND('',#144,.T.);
#131=FACE_OUTER_BOUND('',#145,.T.);
#132=FACE_OUTER_BOUND('',#146,.T.);
#133=FACE_OUTER_BOUND('',#147,.T.);
#134=FACE_OUTER_BOUND('',#148,.T.);
#135=FACE_OUTER_BOUND('',#149,.T.);
#136=FACE_OUTER_BOUND('',#150,.T.);
#137=FACE_OUTER_BOUND('',#151,.T.);
#138=FACE_OUTER_BOUND('',#152,.T.);
#139=EDGE_LOOP('',(#153,#154,#155,#156));
#140=EDGE_LOOP('',(#157,#158,#159,#160));
#141=EDGE_LOOP('',(#161,#162,#163,#164));
#142=EDGE_LOOP('',(#165,#166,#167,#168));
#143=EDGE_LOOP('',(#169,#170,#171,#172));
#144=EDGE_LOOP('',(#173,#174,#175,#176));
#145=EDGE_LOOP('',(#177,#178,#179,#180));
#146=EDGE_LOOP('',(#181,#182,#183,#184));
#147=EDGE_LOOP('',(#185,#186,#187,#188));
#148=EDGE_LOOP('',(#189,#190,#191,#192));
#149=EDGE_LOOP('',(#193,#194,#195,#196));
#150=EDGE_LOOP('',(#197,#198,#199,#200));
#151=EDGE_LOOP('',(#201,#202,#203,#204,#205,#206,#207,#208,#209,#210,#211,
#212));
#152=EDGE_LOOP('',(#213,#214,#215,#216,#217,#218,#219,#220,#221,#222,#223,
#224));
#153=ORIENTED_EDGE('',*,*,#249,.F.);
#154=ORIENTED_EDGE('',*,*,#250,.F.);
#155=ORIENTED_EDGE('',*,*,#251,.T.);
#156=ORIENTED_EDGE('',*,*,#252,.T.);
#157=ORIENTED_EDGE('',*,*,#253,.F.);
#158=ORIENTED_EDGE('',*,*,#252,.F.);
#159=ORIENTED_EDGE('',*,*,#254,.T.);
#160=ORIENTED_EDGE('',*,*,#255,.T.);
#161=ORIENTED_EDGE('',*,*,#256,.F.);
#162=ORIENTED_EDGE('',*,*,#255,.F.);
#163=ORIENTED_EDGE('',*,*,#257,.T.);
#164=ORIENTED_EDGE('',*,*,#258,.T.);
#165=ORIENTED_EDGE('',*,*,#259,.F.);
#166=ORIENTED_EDGE('',*,*,#258,.F.);
#167=ORIENTED_EDGE('',*,*,#260,.T.);
#168=ORIENTED_EDGE('',*,*,#261,.T.);
#169=ORIENTED_EDGE('',*,*,#262,.F.);
#170=ORIENTED_EDGE('',*,*,#261,.F.);
#171=ORIENTED_EDGE('',*,*,#263,.T.);
#172=ORIENTED_EDGE('',*,*,#264,.T.);
#173=ORIENTED_EDGE('',*,*,#265,.F.);
#174=ORIENTED_EDGE('',*,*,#264,.F.);
#175=ORIENTED_EDGE('',*,*,#266,.T.);
#176=ORIENTED_EDGE('',*,*,#267,.T.);
#177=ORIENTED_EDGE('',*,*,#268,.F.);
#178=ORIENTED_EDGE('',*,*,#267,.F.);
#179=ORIENTED_EDGE('',*,*,#269,.T.);
#180=ORIENTED_EDGE('',*,*,#270,.T.);
#181=ORIENTED_EDGE('',*,*,#271,.F.);
#182=ORIENTED_EDGE('',*,*,#270,.F.);
#183=ORIENTED_EDGE('',*,*,#272,.T.);
#184=ORIENTED_EDGE('',*,*,#273,.T.);
#185=ORIENTED_EDGE('',*,*,#274,.F.);
#186=ORIENTED_EDGE('',*,*,#273,.F.);
#187=ORIENTED_EDGE('',*,*,#275,.T.);
#188=ORIENTED_EDGE('',*,*,#276,.T.);
#189=ORIENTED_EDGE('',*,*,#277,.F.);
#190=ORIENTED_EDGE('',*,*,#276,.F.);
#191=ORIENTED_EDGE('',*,*,#278,.T.);
#192=ORIENTED_EDGE('',*,*,#279,.T.);
#193=ORIENTED_EDGE('',*,*,#280,.F.);
#194=ORIENTED_EDGE('',*,*,#279,.F.);
#195=ORIENTED_EDGE('',*,*,#281,.T.);
#196=ORIENTED_EDGE('',*,*,#282,.T.);
#197=ORIENTED_EDGE('',*,*,#283,.F.);
#198=ORIENTED_EDGE('',*,*,#282,.F.);
#199=ORIENTED_EDGE('',*,*,#284,.T.);
#200=ORIENTED_EDGE('',*,*,#250,.T.);
#201=ORIENTED_EDGE('',*,*,#251,.F.);
#202=ORIENTED_EDGE('',*,*,#284,.F.);
#203=ORIENTED_EDGE('',*,*,#281,.F.);
#204=ORIENTED_EDGE('',*,*,#278,.F.);
#205=ORIENTED_EDGE('',*,*,#275,.F.);
#206=ORIENTED_EDGE('',*,*,#272,.F.);
#207=ORIENTED_EDGE('',*,*,#269,.F.);
#208=ORIENTED_EDGE('',*,*,#266,.F.);
#209=ORIENTED_EDGE('',*,*,#263,.F.);
#210=ORIENTED_EDGE('',*,*,#260,.F.);
#211=ORIENTED_EDGE('',*,*,#257,.F.);
#212=ORIENTED_EDGE('',*,*,#254,.F.);
#213=ORIENTED_EDGE('',*,*,#249,.T.);
#214=ORIENTED_EDGE('',*,*,#253,.T.);
#215=ORIENTED_EDGE('',*,*,#256,.T.);
#216=ORIENTED_EDGE('',*,*,#259,.T.);
#217=ORIENTED_EDGE('',*,*,#262,.T.);
#218=ORIENTED_EDGE('',*,*,#265,.T.);
#219=ORIENTED_EDGE('',*,*,#268,.T.);
#220=ORIENTED_EDGE('',*,*,#271,.T.);
#221=ORIENTED_EDGE('',*,*,#274,.T.);
#222=ORIENTED_EDGE('',*,*,#277,.T.);
#223=ORIENTED_EDGE('',*,*,#280,.T.);
#224=ORIENTED_EDGE('',*,*,#283,.T.);
#225=VERTEX_POINT('',#444);
#226=VERTEX_POINT('',#445);
#227=VERTEX_POINT('',#447);
#228=VERTEX_POINT('',#449);
#229=VERTEX_POINT('',#453);
#230=VERTEX_POINT('',#455);
#231=VERTEX_POINT('',#459);
#232=VERTEX_POINT('',#461);
#233=VERTEX_POINT('',#465);
#234=VERTEX_POINT('',#467);
#235=VERTEX_POINT('',#471);
#236=VERTEX_POINT('',#473);
#237=VERTEX_POINT('',#477);
#238=VERTEX_POINT('',#479);
#239=VERTEX_POINT('',#483);
#240=VERTEX_POINT('',#485);
#241=VERTEX_POINT('',#489);
#242=VERTEX_POINT('',#491);
#243=VERTEX_POINT('',#495);
#244=VERTEX_POINT('',#497);
#245=VERTEX_POINT('',#501);
#246=VERTEX_POINT('',#503);
#247=VERTEX_POINT('',#507);
#248=VERTEX_POINT('',#509);
#249=EDGE_CURVE('',#225,#226,#285,.T.);
#250=EDGE_CURVE('',#227,#225,#286,.T.);
#251=EDGE_CURVE('',#227,#228,#287,.T.);
#252=EDGE_CURVE('',#228,#226,#288,.T.);
#253=EDGE_CURVE('',#226,#229,#289,.T.);
#254=EDGE_CURVE('',#228,#230,#290,.T.);
#255=EDGE_CURVE('',#230,#229,#291,.T.);
#256=EDGE_CURVE('',#229,#231,#292,.T.);
#257=EDGE_CURVE('',#230,#232,#293,.T.);
#258=EDGE_CURVE('',#232,#231,#294,.T.);
#259=EDGE_CURVE('',#231,#233,#295,.T.);
#260=EDGE_CURVE('',#232,#234,#296,.T.);
#261=EDGE_CURVE('',#234,#233,#297,.T.);
#262=EDGE_CURVE('',#233,#235,#298,.T.);
#263=EDGE_CURVE('',#234,#236,#299,.T.);
#264=EDGE_CURVE('',#236,#235,#300,.T.);
#265=EDGE_CURVE('',#235,#237,#301,.T.);
#266=EDGE_CURVE('',#236,#238,#302,.T.);
#267=EDGE_CURVE('',#238,#237,#303,.T.);
#268=EDGE_CURVE('',#237,#239,#304,.T.);
#269=EDGE_CURVE('',#238,#240,#305,.T.);
#270=EDGE_CURVE('',#240,#239,#306,.T.);
#271=EDGE_CURVE('',#239,#241,#307,.T.);
#272=EDGE_CURVE('',#240,#242,#308,.T.);
#273=EDGE_CURVE('',#242,#241,#309,.T.);
#274=EDGE_CURVE('',#241,#243,#310,.T.);
#275=EDGE_CURVE('',#242,#244,#311,.T.);
#276=EDGE_CURVE('',#244,#243,#312,.T.);
#277=EDGE_CURVE('',#243,#245,#313,.T.);
#278=EDGE_CURVE('',#244,#246,#314,.T.);
#279=EDGE_CURVE('',#246,#245,#315,.T.);
#280=EDGE_CURVE('',#245,#247,#316,.T.);
#281=EDGE_CURVE('',#246,#248,#317,.T.);
#282=EDGE_CURVE('',#248,#247,#318,.T.);
#283=EDGE_CURVE('',#247,#225,#319,.T.);
#284=EDGE_CURVE('',#248,#227,#320,.T.);
#285=LINE('',#443,#321);
#286=LINE('',#446,#322);
#287=LINE('',#448,#323);
#288=LINE('',#450,#324);
#289=LINE('',#452,#325);
#290=LINE('',#454,#326);
#291=LINE('',#456,#327);
#292=LINE('',#458,#328);
#293=LINE('',#460,#329);
#294=LINE('',#462,#330);
#295=LINE('',#464,#331);
#296=LINE('',#466,#332);
#297=LINE('',#468,#333);
#298=LINE('',#470,#334);
#299=LINE('',#472,#335);
#300=LINE('',#474,#336);
#301=LINE('',#476,#337);
#302=LINE('',#478,#338);
#303=LINE('',#480,#339);
#304=LINE('',#482,#340);
#305=LINE('',#484,#341);
#306=LINE('',#486,#342);
#307=LINE('',#488,#343);
#308=LINE('',#490,#344);
#309=LINE('',#492,#345);
#310=LINE('',#494,#346);
#311=LINE('',#496,#347);
#312=LINE('',#498,#348);
#313=LINE('',#500,#349);
#314=LINE('',#502,#350);
#315=LINE('',#504,#351);
#316=LINE('',#506,#352);
#317=LINE('',#508,#353);
#318=LINE('',#510,#354);
#319=LINE('',#512,#355);
#320=LINE('',#513,#356);
#321=VECTOR('',#377,1.);
#322=VECTOR('',#378,1.);
#323=VECTOR('',#379,1.);
#324=VECTOR('',#380,1.);
#325=VECTOR('',#383,1.);
#326=VECTOR('',#384,1.);
#327=VECTOR('',#385,1.);
#328=VECTOR('',#388,1.);
#329=VECTOR('',#389,1.);
#330=VECTOR('',#390,1.);
#331=VECTOR('',#393,1.);
#332=VECTOR('',#394,1.);
#333=VECTOR('',#395,1.);
#334=VECTOR('',#398,1.);
#335=VECTOR('',#399,1.);
#336=VECTOR('',#400,1.);
#337=VECTOR('',#403,1.);
#338=VECTOR('',#404,1.);
#339=VECTOR('',#405,1.);
#340=VECTOR('',#408,1.);
#341=VECTOR('',#409,1.);
#342=VECTOR('',#410,1.);
#343=VECTOR('',#413,1.);
#344=VECTOR('',#414,1.);
#345=VECTOR('',#415,1.);
#346=VECTOR('',#418,1.);
#347=VECTOR('',#419,1.);
#348=VECTOR('',#420,1.);
#349=VECTOR('',#423,1.);
#350=VECTOR('',#424,1.);
#351=VECTOR('',#425,1.);
#352=VECTOR('',#428,1.);
#353=VECTOR('',#429,1.);
#354=VECTOR('',#430,1.);
#355=VECTOR('',#433,1.);
#356=VECTOR('',#434,1.);
#357=AXIS2_PLACEMENT_3D('',#441,#373,#374);
#358=AXIS2_PLACEMENT_3D('',#442,#375,#376);
#359=AXIS2_PLACEMENT_3D('',#451,#381,#382);
#360=AXIS2_PLACEMENT_3D('',#457,#386,#387);
#361=AXIS2_PLACEMENT_3D('',#463,#391,#392);
#362=AXIS2_PLACEMENT_3D('',#469,#396,#397);
#363=AXIS2_PLACEMENT_3D('',#475,#401,#402);
#364=AXIS2_PLACEMENT_3D('',#481,#406,#407);
#365=AXIS2_PLACEMENT_3D('',#487,#411,#412);
#366=AXIS2_PLACEMENT_3D('',#493,#416,#417);
#367=AXIS2_PLACEMENT_3D('',#499,#421,#422);
#368=AXIS2_PLACEMENT_3D('',#505,#426,#427);
#369=AXIS2_PLACEMENT_3D('',#511,#431,#432);
#370=AXIS2_PLACEMENT_3D('',#514,#435,#436);
#371=AXIS2_PLACEMENT_3D('',#515,#437,#438);
#372=AXIS2_PLACEMENT_3D('',#516,#439,#440);
#373=DIRECTION('',(0.,0.,1.));
#374=DIRECTION('',(1.,0.,0.));
#375=DIRECTION('',(1.,0.,0.));
#376=DIRECTION('',(0.,1.,0.));
#377=DIRECTION('',(0.,0.,-1.));
#378=DIRECTION('',(-1.,0.,0.));
#379=DIRECTION('',(0.,0.,-1.));
#380=DIRECTION('',(-1.,0.,0.));
#381=DIRECTION('',(0.,1.,0.));
#382=DIRECTION('',(0.,0.,1.));
#383=DIRECTION('',(0.,-0.923879532511288,-0.382683432365087));
#384=DIRECTION('',(0.,-0.923879532511288,-0.382683432365087));
#385=DIRECTION('',(-1.,0.,0.));
#386=DIRECTION('',(0.,0.382683432365087,-0.923879532511288));
#387=DIRECTION('',(0.,0.923879532511288,0.382683432365087));
#388=DIRECTION('',(0.,-0.707106781186537,0.707106781186558));
#389=DIRECTION('',(0.,-0.707106781186537,0.707106781186558));
#390=DIRECTION('',(-1.,0.,0.));
#391=DIRECTION('',(0.,-0.707106781186558,-0.707106781186537));
#392=DIRECTION('',(0.,0.707106781186537,-0.707106781186558));
#393=DIRECTION('',(0.,0.992546151641322,0.12186934340515));
#394=DIRECTION('',(0.,0.992546151641322,0.12186934340515));
#395=DIRECTION('',(-1.,0.,0.));
#396=DIRECTION('',(0.,-0.12186934340515,0.992546151641322));
#397=DIRECTION('',(0.,-0.992546151641322,-0.12186934340515));
#398=DIRECTION('',(0.,0.,1.));
#399=DIRECTION('',(0.,0.,1.));
#400=DIRECTION('',(-1.,0.,0.));
#401=DIRECTION('',(0.,-1.,0.));
#402=DIRECTION('',(0.,0.,-1.));
#403=DIRECTION('',(0.,-1.,0.));
#404=DIRECTION('',(0.,-1.,0.));
#405=DIRECTION('',(-1.,0.,0.));
#406=DIRECTION('',(0.,0.,-1.));
#407=DIRECTION('',(-1.,0.,0.));
#408=DIRECTION('',(0.,0.,-1.));
#409=DIRECTION('',(0.,0.,-1.));
#410=DIRECTION('',(-1.,0.,0.));
#411=DIRECTION('',(0.,1.,0.));
#412=DIRECTION('',(0.,0.,1.));
#413=DIRECTION('',(0.,0.992546151641322,-0.121869343405148));
#414=DIRECTION('',(0.,0.992546151641322,-0.121869343405148));
#415=DIRECTION('',(-1.,0.,0.));
#416=DIRECTION('',(0.,0.121869343405148,0.992546151641322));
#417=DIRECTION('',(0.,-0.992546151641322,0.121869343405148));
#418=DIRECTION('',(0.,-0.707106781186536,-0.707106781186559));
#419=DIRECTION('',(0.,-0.707106781186536,-0.707106781186559));
#420=DIRECTION('',(-1.,0.,0.));
#421=DIRECTION('',(0.,0.707106781186559,-0.707106781186536));
#422=DIRECTION('',(0.,0.707106781186536,0.707106781186559));
#423=DIRECTION('',(0.,-0.923879532511288,0.382683432365087));
#424=DIRECTION('',(0.,-0.923879532511288,0.382683432365087));
#425=DIRECTION('',(-1.,0.,0.));
#426=DIRECTION('',(0.,-0.382683432365087,-0.923879532511288));
#427=DIRECTION('',(0.,0.923879532511288,-0.382683432365087));
#428=DIRECTION('',(0.,0.,1.));
#429=DIRECTION('',(0.,0.,1.));
#430=DIRECTION('',(-1.,0.,0.));
#431=DIRECTION('',(0.,-1.,0.));
#432=DIRECTION('',(0.,0.,-1.));
#433=DIRECTION('',(0.,1.,0.));
#434=DIRECTION('',(0.,1.,0.));
#435=DIRECTION('',(0.,0.,1.));
#436=DIRECTION('',(1.,0.,0.));
#437=DIRECTION('',(-1.,0.,0.));
#438=DIRECTION('',(0.,0.,1.));
#439=DIRECTION('',(-1.,0.,0.));
#440=DIRECTION('',(0.,0.,1.));
#441=CARTESIAN_POINT('',(0.,0.,0.));
#442=CARTESIAN_POINT('',(0.,0.,-0.106341217303005));
#443=CARTESIAN_POINT('',(0.,15.325,0.58));
#444=CARTESIAN_POINT('',(0.,15.325,0.58));
#445=CARTESIAN_POINT('',(0.,15.325,0.277119120199517));
#446=CARTESIAN_POINT('',(72.,15.325,0.58));
#447=CARTESIAN_POINT('',(72.,15.325,0.58));
#448=CARTESIAN_POINT('',(72.,15.325,0.58));
#449=CARTESIAN_POINT('',(72.,15.325,0.277119120199517));
#450=CARTESIAN_POINT('',(72.,15.325,0.277119120199517));
#451=CARTESIAN_POINT('',(72.,15.325,0.58));
#452=CARTESIAN_POINT('',(0.,15.325,0.277119120199517));
#453=CARTESIAN_POINT('',(0.,15.2104204947602,0.229658735159172));
#454=CARTESIAN_POINT('',(72.,15.325,0.277119120199517));
#455=CARTESIAN_POINT('',(72.,15.2104204947602,0.229658735159172));
#456=CARTESIAN_POINT('',(72.,15.2104204947602,0.229658735159172));
#457=CARTESIAN_POINT('',(72.,15.325,0.277119120199517));
#458=CARTESIAN_POINT('',(0.,15.2104204947602,0.229658735159172));
#459=CARTESIAN_POINT('',(0.,15.1426466420341,0.297432587885224));
#460=CARTESIAN_POINT('',(72.,15.2104204947602,0.229658735159172));
#461=CARTESIAN_POINT('',(72.,15.1426466420341,0.297432587885224));
#462=CARTESIAN_POINT('',(72.,15.1426466420341,0.297432587885224));
#463=CARTESIAN_POINT('',(72.,15.2104204947602,0.229658735159172));
#464=CARTESIAN_POINT('',(0.,15.1426466420341,0.297432587885223));
#465=CARTESIAN_POINT('',(0.,15.245,0.310000000000004));
#466=CARTESIAN_POINT('',(72.,15.1426466420341,0.297432587885223));
#467=CARTESIAN_POINT('',(72.,15.245,0.310000000000004));
#468=CARTESIAN_POINT('',(72.,15.245,0.310000000000004));
#469=CARTESIAN_POINT('',(72.,15.1426466420341,0.297432587885223));
#470=CARTESIAN_POINT('',(0.,15.245,0.310000000000004));
#471=CARTESIAN_POINT('',(0.,15.245,0.5));
#472=CARTESIAN_POINT('',(72.,15.245,0.310000000000004));
#473=CARTESIAN_POINT('',(72.,15.245,0.5));
#474=CARTESIAN_POINT('',(72.,15.245,0.5));
#475=CARTESIAN_POINT('',(72.,15.245,0.310000000000004));
#476=CARTESIAN_POINT('',(0.,15.245,0.5));
#477=CARTESIAN_POINT('',(0.,9.155,0.5));
#478=CARTESIAN_POINT('',(72.,15.245,0.5));
#479=CARTESIAN_POINT('',(72.,9.155,0.5));
#480=CARTESIAN_POINT('',(72.,9.155,0.5));
#481=CARTESIAN_POINT('',(72.,15.245,0.5));
#482=CARTESIAN_POINT('',(0.,9.155,0.5));
#483=CARTESIAN_POINT('',(0.,9.155,0.310000000000004));
#484=CARTESIAN_POINT('',(72.,9.155,0.5));
#485=CARTESIAN_POINT('',(72.,9.155,0.310000000000004));
#486=CARTESIAN_POINT('',(72.,9.155,0.310000000000004));
#487=CARTESIAN_POINT('',(72.,9.155,0.5));
#488=CARTESIAN_POINT('',(0.,9.155,0.310000000000004));
#489=CARTESIAN_POINT('',(0.,9.2573533579659,0.297432587885223));
#490=CARTESIAN_POINT('',(72.,9.155,0.310000000000004));
#491=CARTESIAN_POINT('',(72.,9.2573533579659,0.297432587885223));
#492=CARTESIAN_POINT('',(72.,9.2573533579659,0.297432587885223));
#493=CARTESIAN_POINT('',(72.,9.155,0.310000000000004));
#494=CARTESIAN_POINT('',(0.,9.2573533579659,0.297432587885223));
#495=CARTESIAN_POINT('',(0.,9.18957950523985,0.229658735159172));
#496=CARTESIAN_POINT('',(72.,9.2573533579659,0.297432587885223));
#497=CARTESIAN_POINT('',(72.,9.18957950523985,0.229658735159172));
#498=CARTESIAN_POINT('',(72.,9.18957950523985,0.229658735159172));
#499=CARTESIAN_POINT('',(72.,9.2573533579659,0.297432587885223));
#500=CARTESIAN_POINT('',(0.,9.18957950523985,0.229658735159172));
#501=CARTESIAN_POINT('',(0.,9.075,0.277119120199517));
#502=CARTESIAN_POINT('',(72.,9.18957950523985,0.229658735159172));
#503=CARTESIAN_POINT('',(72.,9.075,0.277119120199517));
#504=CARTESIAN_POINT('',(72.,9.075,0.277119120199517));
#505=CARTESIAN_POINT('',(72.,9.18957950523985,0.229658735159172));
#506=CARTESIAN_POINT('',(0.,9.075,0.277119120199517));
#507=CARTESIAN_POINT('',(0.,9.075,0.58));
#508=CARTESIAN_POINT('',(72.,9.075,0.277119120199517));
#509=CARTESIAN_POINT('',(72.,9.075,0.58));
#510=CARTESIAN_POINT('',(72.,9.075,0.58));
#511=CARTESIAN_POINT('',(72.,9.075,0.277119120199517));
#512=CARTESIAN_POINT('',(0.,9.075,0.58));
#513=CARTESIAN_POINT('',(72.,9.075,0.58));
#514=CARTESIAN_POINT('',(72.,9.075,0.58));
#515=CARTESIAN_POINT('',(72.,15.325,0.5));
#516=CARTESIAN_POINT('',(0.,15.325,0.5));
#517=(
GEOMETRIC_REPRESENTATION_CONTEXT(3)
GLOBAL_UNCERTAINTY_ASSIGNED_CONTEXT((#518))
GLOBAL_UNIT_ASSIGNED_CONTEXT((#523,#520,#519))
REPRESENTATION_CONTEXT('C6_3D_WEB','TOP_LEVEL_ASSEMBLY_PART')
);
#518=UNCERTAINTY_MEASURE_WITH_UNIT(LENGTH_MEASURE(7.8740157480315E-007),
#523,'DISTANCE_ACCURACY_VALUE','Maximum Tolerance applied to model');
#519=(
NAMED_UNIT(*)
SI_UNIT($,.STERADIAN.)
SOLID_ANGLE_UNIT()
);
#520=(
CONVERSION_BASED_UNIT('DEGREE',#521)
NAMED_UNIT(#525)
PLANE_ANGLE_UNIT()
);
#521=PLANE_ANGLE_MEASURE_WITH_UNIT(PLANE_ANGLE_MEASURE(0.0174532925),#522);
#522=(
NAMED_UNIT(*)
PLANE_ANGLE_UNIT()
SI_UNIT($,.RADIAN.)
);
#523=(
CONVERSION_BASED_UNIT('INCH',#526)
LENGTH_UNIT()
NAMED_UNIT(#524)
);
#524=DIMENSIONAL_EXPONENTS(1.,0.,0.,0.,0.,0.,0.);
#525=DIMENSIONAL_EXPONENTS(0.,0.,0.,0.,0.,0.,0.);
#526=LENGTH_MEASURE_WITH_UNIT(LENGTH_MEASURE(25.4),#527);
#527=(
LENGTH_UNIT()
NAMED_UNIT(*)
SI_UNIT(.MILLI.,.METRE.)
);
ENDSEC;
END-ISO-10303-21;
