ISO-10303-21;
HEADER;
/* Generated by software containing ST-Developer
 * from STEP Tools, Inc. (www.steptools.com) 
 */
/* OPTION: using custom schema-name function */

FILE_DESCRIPTION(
/* description */ (''),
/* implementation_level */ '2;1');

FILE_NAME(
/* name */ 'CCH62-S10-M0.stp',
/* time_stamp */ '2021-12-01T11:24:28-05:00',
/* author */ (''),
/* organization */ (''),
/* preprocessor_version */ 'ST-DEVELOPER v16.7',
/* originating_system */ 'SIEMENS PLM Software NX 1926',
/* authorisation */ '');

FILE_SCHEMA (('AP203_CONFIGURATION_CONTROLLED_3D_DESIGN_OF_MECHANICAL_PARTS_AND_ASSEMBLIES_MIM_LF { 1 0 10303 403 2 1 2}'));
ENDSEC;

DATA;
#10=SHAPE_REPRESENTATION_RELATIONSHIP('None',
'relationship between 056479_A-CCH62-None and 056479_A-CCH62-None',#76,
#11);
#11=ADVANCED_BREP_SHAPE_REPRESENTATION('056479_A-CCH62-None',(#86),#585);
#12=APPLIED_APPROVAL_ASSIGNMENT(#24,(#66));
#13=APPLIED_APPROVAL_ASSIGNMENT(#25,(#68));
#14=APPLIED_APPROVAL_ASSIGNMENT(#26,(#38));
#15=APPROVAL_PERSON_ORGANIZATION(#30,#24,#18);
#16=APPROVAL_PERSON_ORGANIZATION(#31,#25,#19);
#17=APPROVAL_PERSON_ORGANIZATION(#32,#26,#20);
#18=APPROVAL_ROLE('approver');
#19=APPROVAL_ROLE('approver');
#20=APPROVAL_ROLE('approver');
#21=APPROVAL_DATE_TIME(#46,#24);
#22=APPROVAL_DATE_TIME(#47,#25);
#23=APPROVAL_DATE_TIME(#48,#26);
#24=APPROVAL(#27,' ');
#25=APPROVAL(#28,' ');
#26=APPROVAL(#29,' ');
#27=APPROVAL_STATUS('not_yet_approved');
#28=APPROVAL_STATUS('not_yet_approved');
#29=APPROVAL_STATUS('not_yet_approved');
#30=PERSON_AND_ORGANIZATION(#36,#33);
#31=PERSON_AND_ORGANIZATION(#36,#34);
#32=PERSON_AND_ORGANIZATION(#36,#35);
#33=ORGANIZATION(' ',' ',' ');
#34=ORGANIZATION(' ',' ',' ');
#35=ORGANIZATION(' ',' ',' ');
#36=PERSON(' ',' ',' ',(' '),$,$);
#37=APPLIED_SECURITY_CLASSIFICATION_ASSIGNMENT(#38,(#68));
#38=SECURITY_CLASSIFICATION(' ',' ',#39);
#39=SECURITY_CLASSIFICATION_LEVEL('confidential');
#40=APPLIED_DATE_AND_TIME_ASSIGNMENT(#44,#42,(#66));
#41=APPLIED_DATE_AND_TIME_ASSIGNMENT(#45,#43,(#38));
#42=DATE_TIME_ROLE('creation_date');
#43=DATE_TIME_ROLE('classification_date');
#44=DATE_AND_TIME(#59,#49);
#45=DATE_AND_TIME(#60,#50);
#46=DATE_AND_TIME(#61,#51);
#47=DATE_AND_TIME(#62,#52);
#48=DATE_AND_TIME(#63,#53);
#49=LOCAL_TIME(0,0,0.,#54);
#50=LOCAL_TIME(0,0,0.,#55);
#51=LOCAL_TIME(0,0,0.,#56);
#52=LOCAL_TIME(0,0,0.,#57);
#53=LOCAL_TIME(0,0,0.,#58);
#54=COORDINATED_UNIVERSAL_TIME_OFFSET(0,0,.BEHIND.);
#55=COORDINATED_UNIVERSAL_TIME_OFFSET(0,0,.BEHIND.);
#56=COORDINATED_UNIVERSAL_TIME_OFFSET(0,0,.BEHIND.);
#57=COORDINATED_UNIVERSAL_TIME_OFFSET(0,0,.BEHIND.);
#58=COORDINATED_UNIVERSAL_TIME_OFFSET(0,0,.BEHIND.);
#59=CALENDAR_DATE(0,1,1);
#60=CALENDAR_DATE(0,1,1);
#61=CALENDAR_DATE(0,1,1);
#62=CALENDAR_DATE(0,1,1);
#63=CALENDAR_DATE(0,1,1);
#64=SHAPE_DEFINITION_REPRESENTATION(#65,#76);
#65=PRODUCT_DEFINITION_SHAPE('','',#66);
#66=PRODUCT_DEFINITION(' ','',#68,#67);
#67=PRODUCT_DEFINITION_CONTEXT('part definition',#75,'design');
#68=PRODUCT_DEFINITION_FORMATION_WITH_SPECIFIED_SOURCE(' ',' ',#70,
 .NOT_KNOWN.);
#69=PRODUCT_RELATED_PRODUCT_CATEGORY('detail','',(#70));
#70=PRODUCT('056479_A-CCH62','056479_A-CCH62',' ',(#73));
#71=PRODUCT_CATEGORY('part',' ');
#72=PRODUCT_CATEGORY(' ','');
#73=PRODUCT_CONTEXT(' ',#75,'mechanical');
#74=APPLICATION_PROTOCOL_DEFINITION('international standard',
'config_control_design',2010,#75);
#75=APPLICATION_CONTEXT(
'configuration controlled 3D designs of mechanical parts and assemblie
s');
#76=SHAPE_REPRESENTATION('056479_A-CCH62-None',(#376),#585);
#77=PRESENTATION_LAYER_ASSIGNMENT('1','Layer 1',(#86));
#78=STYLED_ITEM('',(#79),#86);
#79=PRESENTATION_STYLE_ASSIGNMENT((#80));
#80=SURFACE_STYLE_USAGE(.BOTH.,#81);
#81=SURFACE_SIDE_STYLE('',(#82));
#82=SURFACE_STYLE_FILL_AREA(#83);
#83=FILL_AREA_STYLE('',(#84));
#84=FILL_AREA_STYLE_COLOUR('',#85);
#85=COLOUR_RGB('obscure gray',0.2,0.2,0.2);
#86=MANIFOLD_SOLID_BREP('',#87);
#87=CLOSED_SHELL('',(#106,#107,#108,#109,#110,#111,#112,#113,#114,#115,
#116,#117,#118,#119,#120,#121));
#88=CYLINDRICAL_SURFACE('',#386,0.31);
#89=CYLINDRICAL_SURFACE('',#395,0.36);
#90=CYLINDRICAL_SURFACE('',#403,0.075);
#91=CYLINDRICAL_SURFACE('',#404,0.25);
#92=CYLINDRICAL_SURFACE('',#405,0.1015);
#93=CYLINDRICAL_SURFACE('',#406,0.1015);
#94=CYLINDRICAL_SURFACE('',#407,0.025);
#95=CYLINDRICAL_SURFACE('',#408,0.25);
#96=FACE_OUTER_BOUND('',#194,.T.);
#97=FACE_OUTER_BOUND('',#195,.T.);
#98=FACE_OUTER_BOUND('',#200,.T.);
#99=FACE_OUTER_BOUND('',#201,.T.);
#100=FACE_OUTER_BOUND('',#202,.T.);
#101=FACE_OUTER_BOUND('',#203,.T.);
#102=FACE_OUTER_BOUND('',#204,.T.);
#103=FACE_OUTER_BOUND('',#205,.T.);
#104=FACE_OUTER_BOUND('',#210,.T.);
#105=FACE_OUTER_BOUND('',#211,.T.);
#106=ADVANCED_FACE('',(#178,#179),#122,.T.);
#107=ADVANCED_FACE('',(#180,#181),#123,.T.);
#108=ADVANCED_FACE('',(#96),#124,.T.);
#109=ADVANCED_FACE('',(#97),#88,.F.);
#110=ADVANCED_FACE('',(#182,#183),#125,.T.);
#111=ADVANCED_FACE('',(#184,#185),#126,.T.);
#112=ADVANCED_FACE('',(#98),#89,.T.);
#113=ADVANCED_FACE('',(#99),#127,.T.);
#114=ADVANCED_FACE('',(#100),#128,.T.);
#115=ADVANCED_FACE('',(#101),#129,.F.);
#116=ADVANCED_FACE('',(#102),#90,.T.);
#117=ADVANCED_FACE('',(#103),#91,.T.);
#118=ADVANCED_FACE('',(#186,#187),#92,.F.);
#119=ADVANCED_FACE('',(#188,#189),#93,.F.);
#120=ADVANCED_FACE('',(#104),#94,.F.);
#121=ADVANCED_FACE('',(#105),#95,.T.);
#122=PLANE('',#379);
#123=PLANE('',#382);
#124=PLANE('',#383);
#125=PLANE('',#389);
#126=PLANE('',#392);
#127=PLANE('',#396);
#128=PLANE('',#399);
#129=PLANE('',#402);
#130=LINE('',#502,#154);
#131=LINE('',#507,#155);
#132=LINE('',#509,#156);
#133=LINE('',#516,#157);
#134=LINE('',#518,#158);
#135=LINE('',#520,#159);
#136=LINE('',#522,#160);
#137=LINE('',#525,#161);
#138=LINE('',#527,#162);
#139=LINE('',#529,#163);
#140=LINE('',#535,#164);
#141=LINE('',#539,#165);
#142=LINE('',#543,#166);
#143=LINE('',#550,#167);
#144=LINE('',#552,#168);
#145=LINE('',#554,#169);
#146=LINE('',#560,#170);
#147=LINE('',#562,#171);
#148=LINE('',#564,#172);
#149=LINE('',#566,#173);
#150=LINE('',#568,#174);
#151=LINE('',#570,#175);
#152=LINE('',#573,#176);
#153=LINE('',#575,#177);
#154=VECTOR('',#413,1.);
#155=VECTOR('',#416,1.);
#156=VECTOR('',#417,1.);
#157=VECTOR('',#424,1.);
#158=VECTOR('',#425,1.);
#159=VECTOR('',#426,1.);
#160=VECTOR('',#429,1.);
#161=VECTOR('',#430,1.);
#162=VECTOR('',#431,1.);
#163=VECTOR('',#432,1.);
#164=VECTOR('',#439,1.);
#165=VECTOR('',#444,1.);
#166=VECTOR('',#447,1.);
#167=VECTOR('',#454,1.);
#168=VECTOR('',#455,1.);
#169=VECTOR('',#456,1.);
#170=VECTOR('',#463,1.);
#171=VECTOR('',#466,1.);
#172=VECTOR('',#467,1.);
#173=VECTOR('',#468,1.);
#174=VECTOR('',#471,1.);
#175=VECTOR('',#474,1.);
#176=VECTOR('',#479,1.);
#177=VECTOR('',#482,1.);
#178=FACE_BOUND('',#190,.T.);
#179=FACE_BOUND('',#191,.T.);
#180=FACE_BOUND('',#192,.T.);
#181=FACE_BOUND('',#193,.T.);
#182=FACE_BOUND('',#196,.T.);
#183=FACE_BOUND('',#197,.T.);
#184=FACE_BOUND('',#198,.T.);
#185=FACE_BOUND('',#199,.T.);
#186=FACE_BOUND('',#206,.T.);
#187=FACE_BOUND('',#207,.T.);
#188=FACE_BOUND('',#208,.T.);
#189=FACE_BOUND('',#209,.T.);
#190=EDGE_LOOP('',(#212));
#191=EDGE_LOOP('',(#213,#214,#215,#216));
#192=EDGE_LOOP('',(#217));
#193=EDGE_LOOP('',(#218,#219,#220,#221));
#194=EDGE_LOOP('',(#222,#223,#224,#225));
#195=EDGE_LOOP('',(#226,#227,#228,#229));
#196=EDGE_LOOP('',(#230));
#197=EDGE_LOOP('',(#231,#232,#233,#234));
#198=EDGE_LOOP('',(#235));
#199=EDGE_LOOP('',(#236,#237,#238,#239));
#200=EDGE_LOOP('',(#240,#241,#242,#243));
#201=EDGE_LOOP('',(#244,#245,#246,#247));
#202=EDGE_LOOP('',(#248,#249,#250,#251,#252,#253,#254,#255,#256,#257,#258,
#259));
#203=EDGE_LOOP('',(#260,#261,#262,#263,#264,#265,#266,#267,#268,#269,#270,
#271));
#204=EDGE_LOOP('',(#272,#273,#274,#275));
#205=EDGE_LOOP('',(#276,#277,#278,#279));
#206=EDGE_LOOP('',(#280));
#207=EDGE_LOOP('',(#281));
#208=EDGE_LOOP('',(#282));
#209=EDGE_LOOP('',(#283));
#210=EDGE_LOOP('',(#284,#285,#286,#287));
#211=EDGE_LOOP('',(#288,#289,#290,#291));
#212=ORIENTED_EDGE('',*,*,#320,.T.);
#213=ORIENTED_EDGE('',*,*,#321,.T.);
#214=ORIENTED_EDGE('',*,*,#322,.T.);
#215=ORIENTED_EDGE('',*,*,#323,.F.);
#216=ORIENTED_EDGE('',*,*,#324,.T.);
#217=ORIENTED_EDGE('',*,*,#325,.T.);
#218=ORIENTED_EDGE('',*,*,#326,.T.);
#219=ORIENTED_EDGE('',*,*,#327,.T.);
#220=ORIENTED_EDGE('',*,*,#328,.T.);
#221=ORIENTED_EDGE('',*,*,#329,.F.);
#222=ORIENTED_EDGE('',*,*,#330,.F.);
#223=ORIENTED_EDGE('',*,*,#331,.T.);
#224=ORIENTED_EDGE('',*,*,#332,.T.);
#225=ORIENTED_EDGE('',*,*,#333,.T.);
#226=ORIENTED_EDGE('',*,*,#334,.F.);
#227=ORIENTED_EDGE('',*,*,#333,.F.);
#228=ORIENTED_EDGE('',*,*,#335,.T.);
#229=ORIENTED_EDGE('',*,*,#336,.T.);
#230=ORIENTED_EDGE('',*,*,#337,.T.);
#231=ORIENTED_EDGE('',*,*,#338,.T.);
#232=ORIENTED_EDGE('',*,*,#339,.T.);
#233=ORIENTED_EDGE('',*,*,#340,.F.);
#234=ORIENTED_EDGE('',*,*,#336,.F.);
#235=ORIENTED_EDGE('',*,*,#341,.T.);
#236=ORIENTED_EDGE('',*,*,#342,.T.);
#237=ORIENTED_EDGE('',*,*,#343,.T.);
#238=ORIENTED_EDGE('',*,*,#344,.T.);
#239=ORIENTED_EDGE('',*,*,#345,.F.);
#240=ORIENTED_EDGE('',*,*,#346,.F.);
#241=ORIENTED_EDGE('',*,*,#344,.F.);
#242=ORIENTED_EDGE('',*,*,#347,.T.);
#243=ORIENTED_EDGE('',*,*,#348,.T.);
#244=ORIENTED_EDGE('',*,*,#349,.T.);
#245=ORIENTED_EDGE('',*,*,#350,.T.);
#246=ORIENTED_EDGE('',*,*,#351,.F.);
#247=ORIENTED_EDGE('',*,*,#348,.F.);
#248=ORIENTED_EDGE('',*,*,#327,.F.);
#249=ORIENTED_EDGE('',*,*,#352,.T.);
#250=ORIENTED_EDGE('',*,*,#321,.F.);
#251=ORIENTED_EDGE('',*,*,#353,.T.);
#252=ORIENTED_EDGE('',*,*,#349,.F.);
#253=ORIENTED_EDGE('',*,*,#347,.F.);
#254=ORIENTED_EDGE('',*,*,#343,.F.);
#255=ORIENTED_EDGE('',*,*,#354,.T.);
#256=ORIENTED_EDGE('',*,*,#338,.F.);
#257=ORIENTED_EDGE('',*,*,#335,.F.);
#258=ORIENTED_EDGE('',*,*,#332,.F.);
#259=ORIENTED_EDGE('',*,*,#355,.T.);
#260=ORIENTED_EDGE('',*,*,#323,.T.);
#261=ORIENTED_EDGE('',*,*,#356,.T.);
#262=ORIENTED_EDGE('',*,*,#329,.T.);
#263=ORIENTED_EDGE('',*,*,#357,.T.);
#264=ORIENTED_EDGE('',*,*,#330,.T.);
#265=ORIENTED_EDGE('',*,*,#334,.T.);
#266=ORIENTED_EDGE('',*,*,#340,.T.);
#267=ORIENTED_EDGE('',*,*,#358,.T.);
#268=ORIENTED_EDGE('',*,*,#345,.T.);
#269=ORIENTED_EDGE('',*,*,#346,.T.);
#270=ORIENTED_EDGE('',*,*,#351,.T.);
#271=ORIENTED_EDGE('',*,*,#359,.T.);
#272=ORIENTED_EDGE('',*,*,#355,.F.);
#273=ORIENTED_EDGE('',*,*,#331,.F.);
#274=ORIENTED_EDGE('',*,*,#357,.F.);
#275=ORIENTED_EDGE('',*,*,#328,.F.);
#276=ORIENTED_EDGE('',*,*,#358,.F.);
#277=ORIENTED_EDGE('',*,*,#339,.F.);
#278=ORIENTED_EDGE('',*,*,#354,.F.);
#279=ORIENTED_EDGE('',*,*,#342,.F.);
#280=ORIENTED_EDGE('',*,*,#337,.F.);
#281=ORIENTED_EDGE('',*,*,#341,.F.);
#282=ORIENTED_EDGE('',*,*,#325,.F.);
#283=ORIENTED_EDGE('',*,*,#320,.F.);
#284=ORIENTED_EDGE('',*,*,#353,.F.);
#285=ORIENTED_EDGE('',*,*,#324,.F.);
#286=ORIENTED_EDGE('',*,*,#359,.F.);
#287=ORIENTED_EDGE('',*,*,#350,.F.);
#288=ORIENTED_EDGE('',*,*,#356,.F.);
#289=ORIENTED_EDGE('',*,*,#322,.F.);
#290=ORIENTED_EDGE('',*,*,#352,.F.);
#291=ORIENTED_EDGE('',*,*,#326,.F.);
#292=VERTEX_POINT('',#501);
#293=VERTEX_POINT('',#503);
#294=VERTEX_POINT('',#504);
#295=VERTEX_POINT('',#506);
#296=VERTEX_POINT('',#508);
#297=VERTEX_POINT('',#512);
#298=VERTEX_POINT('',#514);
#299=VERTEX_POINT('',#515);
#300=VERTEX_POINT('',#517);
#301=VERTEX_POINT('',#519);
#302=VERTEX_POINT('',#523);
#303=VERTEX_POINT('',#524);
#304=VERTEX_POINT('',#526);
#305=VERTEX_POINT('',#528);
#306=VERTEX_POINT('',#532);
#307=VERTEX_POINT('',#534);
#308=VERTEX_POINT('',#538);
#309=VERTEX_POINT('',#540);
#310=VERTEX_POINT('',#542);
#311=VERTEX_POINT('',#546);
#312=VERTEX_POINT('',#548);
#313=VERTEX_POINT('',#549);
#314=VERTEX_POINT('',#551);
#315=VERTEX_POINT('',#553);
#316=VERTEX_POINT('',#557);
#317=VERTEX_POINT('',#559);
#318=VERTEX_POINT('',#563);
#319=VERTEX_POINT('',#565);
#320=EDGE_CURVE('',#292,#292,#360,.T.);
#321=EDGE_CURVE('',#293,#294,#130,.T.);
#322=EDGE_CURVE('',#294,#295,#361,.T.);
#323=EDGE_CURVE('',#296,#295,#131,.T.);
#324=EDGE_CURVE('',#296,#293,#132,.T.);
#325=EDGE_CURVE('',#297,#297,#362,.T.);
#326=EDGE_CURVE('',#298,#299,#363,.T.);
#327=EDGE_CURVE('',#299,#300,#133,.T.);
#328=EDGE_CURVE('',#300,#301,#134,.T.);
#329=EDGE_CURVE('',#298,#301,#135,.T.);
#330=EDGE_CURVE('',#302,#303,#136,.T.);
#331=EDGE_CURVE('',#302,#304,#137,.T.);
#332=EDGE_CURVE('',#304,#305,#138,.T.);
#333=EDGE_CURVE('',#305,#303,#139,.T.);
#334=EDGE_CURVE('',#303,#306,#364,.T.);
#335=EDGE_CURVE('',#305,#307,#365,.T.);
#336=EDGE_CURVE('',#307,#306,#140,.T.);
#337=EDGE_CURVE('',#308,#308,#366,.T.);
#338=EDGE_CURVE('',#307,#309,#141,.T.);
#339=EDGE_CURVE('',#309,#310,#367,.T.);
#340=EDGE_CURVE('',#306,#310,#142,.T.);
#341=EDGE_CURVE('',#311,#311,#368,.T.);
#342=EDGE_CURVE('',#312,#313,#369,.T.);
#343=EDGE_CURVE('',#313,#314,#143,.T.);
#344=EDGE_CURVE('',#314,#315,#144,.T.);
#345=EDGE_CURVE('',#312,#315,#145,.T.);
#346=EDGE_CURVE('',#315,#316,#370,.T.);
#347=EDGE_CURVE('',#314,#317,#371,.T.);
#348=EDGE_CURVE('',#317,#316,#146,.T.);
#349=EDGE_CURVE('',#317,#318,#147,.T.);
#350=EDGE_CURVE('',#318,#319,#148,.T.);
#351=EDGE_CURVE('',#316,#319,#149,.T.);
#352=EDGE_CURVE('',#299,#294,#150,.T.);
#353=EDGE_CURVE('',#293,#318,#372,.T.);
#354=EDGE_CURVE('',#313,#309,#151,.T.);
#355=EDGE_CURVE('',#304,#300,#373,.T.);
#356=EDGE_CURVE('',#295,#298,#152,.T.);
#357=EDGE_CURVE('',#301,#302,#374,.T.);
#358=EDGE_CURVE('',#310,#312,#153,.T.);
#359=EDGE_CURVE('',#319,#296,#375,.T.);
#360=CIRCLE('',#377,0.1015);
#361=CIRCLE('',#378,0.25);
#362=CIRCLE('',#380,0.1015);
#363=CIRCLE('',#381,0.25);
#364=CIRCLE('',#384,0.31);
#365=CIRCLE('',#385,0.31);
#366=CIRCLE('',#387,0.1015);
#367=CIRCLE('',#388,0.25);
#368=CIRCLE('',#390,0.1015);
#369=CIRCLE('',#391,0.25);
#370=CIRCLE('',#393,0.36);
#371=CIRCLE('',#394,0.36);
#372=CIRCLE('',#397,0.025);
#373=CIRCLE('',#398,0.075);
#374=CIRCLE('',#400,0.075);
#375=CIRCLE('',#401,0.025);
#376=AXIS2_PLACEMENT_3D('',#499,#409,#410);
#377=AXIS2_PLACEMENT_3D('',#500,#411,#412);
#378=AXIS2_PLACEMENT_3D('',#505,#414,#415);
#379=AXIS2_PLACEMENT_3D('',#510,#418,#419);
#380=AXIS2_PLACEMENT_3D('',#511,#420,#421);
#381=AXIS2_PLACEMENT_3D('',#513,#422,#423);
#382=AXIS2_PLACEMENT_3D('',#521,#427,#428);
#383=AXIS2_PLACEMENT_3D('',#530,#433,#434);
#384=AXIS2_PLACEMENT_3D('',#531,#435,#436);
#385=AXIS2_PLACEMENT_3D('',#533,#437,#438);
#386=AXIS2_PLACEMENT_3D('',#536,#440,#441);
#387=AXIS2_PLACEMENT_3D('',#537,#442,#443);
#388=AXIS2_PLACEMENT_3D('',#541,#445,#446);
#389=AXIS2_PLACEMENT_3D('',#544,#448,#449);
#390=AXIS2_PLACEMENT_3D('',#545,#450,#451);
#391=AXIS2_PLACEMENT_3D('',#547,#452,#453);
#392=AXIS2_PLACEMENT_3D('',#555,#457,#458);
#393=AXIS2_PLACEMENT_3D('',#556,#459,#460);
#394=AXIS2_PLACEMENT_3D('',#558,#461,#462);
#395=AXIS2_PLACEMENT_3D('',#561,#464,#465);
#396=AXIS2_PLACEMENT_3D('',#567,#469,#470);
#397=AXIS2_PLACEMENT_3D('',#569,#472,#473);
#398=AXIS2_PLACEMENT_3D('',#571,#475,#476);
#399=AXIS2_PLACEMENT_3D('',#572,#477,#478);
#400=AXIS2_PLACEMENT_3D('',#574,#480,#481);
#401=AXIS2_PLACEMENT_3D('',#576,#483,#484);
#402=AXIS2_PLACEMENT_3D('',#577,#485,#486);
#403=AXIS2_PLACEMENT_3D('',#578,#487,#488);
#404=AXIS2_PLACEMENT_3D('',#579,#489,#490);
#405=AXIS2_PLACEMENT_3D('',#580,#491,#492);
#406=AXIS2_PLACEMENT_3D('',#581,#493,#494);
#407=AXIS2_PLACEMENT_3D('',#582,#495,#496);
#408=AXIS2_PLACEMENT_3D('',#583,#497,#498);
#409=DIRECTION('',(0.,0.,1.));
#410=DIRECTION('',(1.,0.,0.));
#411=DIRECTION('',(1.9761631898613E-17,0.,-1.));
#412=DIRECTION('',(1.,0.,2.10271551236473E-17));
#413=DIRECTION('',(1.,0.,1.9761631898613E-17));
#414=DIRECTION('',(-1.9761631898613E-17,0.,1.));
#415=DIRECTION('',(1.,0.,1.70740499604016E-17));
#416=DIRECTION('',(1.,0.,1.9761631898613E-17));
#417=DIRECTION('',(0.,-1.,0.));
#418=DIRECTION('',(-1.9761631898613E-17,0.,1.));
#419=DIRECTION('',(1.,0.,1.97866896478605E-17));
#420=DIRECTION('',(-2.89390677294943E-17,0.,1.));
#421=DIRECTION('',(-1.,0.,0.));
#422=DIRECTION('',(2.89390677294943E-17,0.,-1.));
#423=DIRECTION('',(-1.,0.,-3.41480999208033E-17));
#424=DIRECTION('',(-1.,0.,-2.89390677294943E-17));
#425=DIRECTION('',(0.,1.,0.));
#426=DIRECTION('',(-1.,0.,-2.89390677294943E-17));
#427=DIRECTION('',(2.89390677294943E-17,0.,-1.));
#428=DIRECTION('',(-1.,0.,-2.88397777881144E-17));
#429=DIRECTION('',(-2.21023300458274E-16,0.,1.));
#430=DIRECTION('',(0.,-1.,0.));
#431=DIRECTION('',(-2.21023300458274E-16,0.,1.));
#432=DIRECTION('',(0.,1.,0.));
#433=DIRECTION('',(-1.,0.,-2.21023300458274E-16));
#434=DIRECTION('',(-2.20309881449055E-16,0.,1.));
#435=DIRECTION('',(0.,-1.,0.));
#436=DIRECTION('',(1.,0.,-1.10155161034849E-16));
#437=DIRECTION('',(0.,-1.,0.));
#438=DIRECTION('',(1.,0.,-1.10155161034849E-16));
#439=DIRECTION('',(0.,1.,0.));
#440=DIRECTION('',(0.,1.,0.));
#441=DIRECTION('',(0.,0.,1.));
#442=DIRECTION('',(0.,0.,-1.));
#443=DIRECTION('',(0.999999999999999,0.,0.));
#444=DIRECTION('',(1.,0.,0.));
#445=DIRECTION('',(0.,0.,1.));
#446=DIRECTION('',(1.,0.,0.));
#447=DIRECTION('',(1.,0.,0.));
#448=DIRECTION('',(0.,0.,1.));
#449=DIRECTION('',(1.,0.,0.));
#450=DIRECTION('',(0.,0.,1.));
#451=DIRECTION('',(-1.,0.,0.));
#452=DIRECTION('',(0.,0.,-1.));
#453=DIRECTION('',(-1.,0.,0.));
#454=DIRECTION('',(-1.,0.,0.));
#455=DIRECTION('',(0.,1.,0.));
#456=DIRECTION('',(-1.,0.,0.));
#457=DIRECTION('',(0.,0.,-1.));
#458=DIRECTION('',(-1.,0.,0.));
#459=DIRECTION('',(0.,1.,0.));
#460=DIRECTION('',(1.,0.,9.48558331133425E-17));
#461=DIRECTION('',(0.,1.,0.));
#462=DIRECTION('',(1.,0.,9.48558331133425E-17));
#463=DIRECTION('',(0.,1.,0.));
#464=DIRECTION('',(0.,1.,0.));
#465=DIRECTION('',(0.,0.,1.));
#466=DIRECTION('',(0.,0.,-1.));
#467=DIRECTION('',(0.,1.,0.));
#468=DIRECTION('',(0.,0.,-1.));
#469=DIRECTION('',(1.,0.,0.));
#470=DIRECTION('',(0.,0.,-1.));
#471=DIRECTION('',(0.,0.,1.));
#472=DIRECTION('',(0.,1.,0.));
#473=DIRECTION('',(0.,0.,-1.));
#474=DIRECTION('',(0.,0.,1.));
#475=DIRECTION('',(0.,-1.,0.));
#476=DIRECTION('',(0.,0.,-1.));
#477=DIRECTION('',(0.,-1.,0.));
#478=DIRECTION('',(0.,0.,-1.));
#479=DIRECTION('',(0.,0.,-1.));
#480=DIRECTION('',(0.,1.,0.));
#481=DIRECTION('',(0.,0.,-1.));
#482=DIRECTION('',(0.,0.,-1.));
#483=DIRECTION('',(0.,-1.,0.));
#484=DIRECTION('',(0.,0.,-1.));
#485=DIRECTION('',(0.,-1.,0.));
#486=DIRECTION('',(0.,0.,-1.));
#487=DIRECTION('',(0.,1.,0.));
#488=DIRECTION('',(0.,0.,1.));
#489=DIRECTION('',(0.,0.,1.));
#490=DIRECTION('',(1.,0.,0.));
#491=DIRECTION('',(0.,0.,1.));
#492=DIRECTION('',(0.999999999999999,0.,0.));
#493=DIRECTION('',(0.,0.,1.));
#494=DIRECTION('',(0.999999999999999,0.,0.));
#495=DIRECTION('',(0.,-1.,0.));
#496=DIRECTION('',(0.,0.,-1.));
#497=DIRECTION('',(0.,0.,1.));
#498=DIRECTION('',(1.,0.,0.));
#499=CARTESIAN_POINT('',(0.,0.,0.));
#500=CARTESIAN_POINT('',(0.65,0.,-0.0115));
#501=CARTESIAN_POINT('',(0.7515,0.,-0.0115));
#502=CARTESIAN_POINT('',(0.36,-0.25,-0.0115));
#503=CARTESIAN_POINT('',(0.385,-0.25,-0.0115));
#504=CARTESIAN_POINT('',(0.65,-0.25,-0.0115));
#505=CARTESIAN_POINT('',(0.65,0.,-0.0115));
#506=CARTESIAN_POINT('',(0.65,0.25,-0.0115));
#507=CARTESIAN_POINT('',(0.36,0.25,-0.0115));
#508=CARTESIAN_POINT('',(0.385,0.25,-0.0115));
#509=CARTESIAN_POINT('',(0.385,-0.25,-0.0115));
#510=CARTESIAN_POINT('',(0.36,-0.25,-0.0115));
#511=CARTESIAN_POINT('',(0.65,0.,-0.0615));
#512=CARTESIAN_POINT('',(0.5485,0.,-0.0615));
#513=CARTESIAN_POINT('',(0.65,0.,-0.0614999999999999));
#514=CARTESIAN_POINT('',(0.65,0.25,-0.0615));
#515=CARTESIAN_POINT('',(0.65,-0.25,-0.0615));
#516=CARTESIAN_POINT('',(0.9,-0.25,-0.0615));
#517=CARTESIAN_POINT('',(0.385,-0.25,-0.0615));
#518=CARTESIAN_POINT('',(0.385,-0.25,-0.0615));
#519=CARTESIAN_POINT('',(0.385,0.25,-0.0615));
#520=CARTESIAN_POINT('',(0.9,0.25,-0.0615));
#521=CARTESIAN_POINT('',(0.9,-0.25,-0.0615));
#522=CARTESIAN_POINT('',(0.31,0.25,-0.0615));
#523=CARTESIAN_POINT('',(0.31,0.25,0.0135));
#524=CARTESIAN_POINT('',(0.31,0.25,0.2475));
#525=CARTESIAN_POINT('',(0.31,-0.25,0.0135));
#526=CARTESIAN_POINT('',(0.31,-0.25,0.0135));
#527=CARTESIAN_POINT('',(0.31,-0.25,-0.0615));
#528=CARTESIAN_POINT('',(0.31,-0.25,0.2475));
#529=CARTESIAN_POINT('',(0.31,-0.25,0.2475));
#530=CARTESIAN_POINT('',(0.31,-0.25,-0.0615));
#531=CARTESIAN_POINT('',(0.,0.25,0.2475));
#532=CARTESIAN_POINT('',(-2.61644472703234E-13,0.25,-0.0625000000000001));
#533=CARTESIAN_POINT('',(0.,-0.25,0.2475));
#534=CARTESIAN_POINT('',(-2.61644472703234E-13,-0.25,-0.0625000000000001));
#535=CARTESIAN_POINT('',(-2.61644472703234E-13,-0.25,-0.0625000000000001));
#536=CARTESIAN_POINT('',(0.,-0.25,0.2475));
#537=CARTESIAN_POINT('',(0.65,0.,-0.0625));
#538=CARTESIAN_POINT('',(0.7515,0.,-0.0625));
#539=CARTESIAN_POINT('',(-2.61469665363556E-13,-0.25,-0.0625));
#540=CARTESIAN_POINT('',(0.65,-0.25,-0.0625));
#541=CARTESIAN_POINT('',(0.65,0.,-0.0625));
#542=CARTESIAN_POINT('',(0.65,0.25,-0.0625));
#543=CARTESIAN_POINT('',(-2.61469665363556E-13,0.25,-0.0625));
#544=CARTESIAN_POINT('',(-2.61469665363556E-13,-0.25,-0.0625));
#545=CARTESIAN_POINT('',(0.65,0.,-0.1125));
#546=CARTESIAN_POINT('',(0.5485,0.,-0.1125));
#547=CARTESIAN_POINT('',(0.65,0.,-0.1125));
#548=CARTESIAN_POINT('',(0.65,0.25,-0.1125));
#549=CARTESIAN_POINT('',(0.65,-0.25,-0.1125));
#550=CARTESIAN_POINT('',(0.9,-0.25,-0.1125));
#551=CARTESIAN_POINT('',(0.,-0.25,-0.1125));
#552=CARTESIAN_POINT('',(0.,-0.25,-0.1125));
#553=CARTESIAN_POINT('',(0.,0.25,-0.1125));
#554=CARTESIAN_POINT('',(0.9,0.25,-0.1125));
#555=CARTESIAN_POINT('',(0.9,-0.25,-0.1125));
#556=CARTESIAN_POINT('',(0.,0.25,0.2475));
#557=CARTESIAN_POINT('',(0.36,0.25,0.2475));
#558=CARTESIAN_POINT('',(0.,-0.25,0.2475));
#559=CARTESIAN_POINT('',(0.36,-0.25,0.2475));
#560=CARTESIAN_POINT('',(0.36,-0.25,0.2475));
#561=CARTESIAN_POINT('',(0.,-0.25,0.2475));
#562=CARTESIAN_POINT('',(0.36,-0.25,0.2475));
#563=CARTESIAN_POINT('',(0.36,-0.25,0.0135));
#564=CARTESIAN_POINT('',(0.36,0.25,0.0135));
#565=CARTESIAN_POINT('',(0.36,0.25,0.0135));
#566=CARTESIAN_POINT('',(0.36,0.25,0.2475));
#567=CARTESIAN_POINT('',(0.36,-0.25,0.2475));
#568=CARTESIAN_POINT('',(0.65,-0.25,0.2475));
#569=CARTESIAN_POINT('',(0.385,-0.25,0.0135));
#570=CARTESIAN_POINT('',(0.65,-0.25,0.2475));
#571=CARTESIAN_POINT('',(0.385,-0.25,0.0135));
#572=CARTESIAN_POINT('',(0.,-0.25,0.2475));
#573=CARTESIAN_POINT('',(0.65,0.25,-0.0614999999999999));
#574=CARTESIAN_POINT('',(0.385,0.25,0.0135));
#575=CARTESIAN_POINT('',(0.65,0.25,-0.1125));
#576=CARTESIAN_POINT('',(0.385,0.25,0.0135));
#577=CARTESIAN_POINT('',(0.,0.25,0.2475));
#578=CARTESIAN_POINT('',(0.385,-0.25,0.0135));
#579=CARTESIAN_POINT('',(0.65,0.,0.2475));
#580=CARTESIAN_POINT('',(0.65,0.,-0.1425));
#581=CARTESIAN_POINT('',(0.65,0.,-0.1425));
#582=CARTESIAN_POINT('',(0.385,-0.25,0.0135));
#583=CARTESIAN_POINT('',(0.65,0.,0.2475));
#584=MECHANICAL_DESIGN_GEOMETRIC_PRESENTATION_REPRESENTATION('',(#78),#585);
#585=(
GEOMETRIC_REPRESENTATION_CONTEXT(3)
GLOBAL_UNCERTAINTY_ASSIGNED_CONTEXT((#586))
GLOBAL_UNIT_ASSIGNED_CONTEXT((#591,#588,#587))
REPRESENTATION_CONTEXT('CCH62-S10-M0','TOP_LEVEL_ASSEMBLY_PART')
);
#586=UNCERTAINTY_MEASURE_WITH_UNIT(LENGTH_MEASURE(7.8740157480315E-7),#591,
'DISTANCE_ACCURACY_VALUE','Maximum Tolerance applied to model');
#587=(
NAMED_UNIT(*)
SI_UNIT($,.STERADIAN.)
SOLID_ANGLE_UNIT()
);
#588=(
CONVERSION_BASED_UNIT('DEGREE',#589)
NAMED_UNIT(#593)
PLANE_ANGLE_UNIT()
);
#589=PLANE_ANGLE_MEASURE_WITH_UNIT(PLANE_ANGLE_MEASURE(0.0174532925),#590);
#590=(
NAMED_UNIT(*)
PLANE_ANGLE_UNIT()
SI_UNIT($,.RADIAN.)
);
#591=(
CONVERSION_BASED_UNIT('INCH',#594)
LENGTH_UNIT()
NAMED_UNIT(#592)
);
#592=DIMENSIONAL_EXPONENTS(1.,0.,0.,0.,0.,0.,0.);
#593=DIMENSIONAL_EXPONENTS(0.,0.,0.,0.,0.,0.,0.);
#594=LENGTH_MEASURE_WITH_UNIT(LENGTH_MEASURE(25.4),#595);
#595=(
LENGTH_UNIT()
NAMED_UNIT(*)
SI_UNIT(.MILLI.,.METRE.)
);
ENDSEC;
END-ISO-10303-21;
